Eve 6 - Heres To The Night Chords & Tabs

 

Heres To The Night Chords & Tabs

Eve 6 Chords & Tabs

Version: 1 Type: Tab 0 ratings
1 star 2 stars 3 stars 4 stars 5 stars
comments

Heres To The Night Tab

   
Eve 6, Here's To The Night.
Tabbed by Clint, Mclean1983@aol.com.
  
Artist: Eve 6
Song: Here's To The Night
Tuning: Guitar 1 & 2: DADGBE (low to high)
Author: Clint McLean (mclean1983@aol.com)
Note: This song has two guitars. G2 doesn't
      show up till the chorus and bridge.
      G2 can be left out if needed, and
      all G2 stuff is palm muted.
Intro:
E|--3---3----
B|--------3--
G|----0------
D|-----------
A|-----------
D|----------- x2

Verse: All palm muted

E|----------------|----------------|----------------|----------------
B|----------------|----------------|----------------|----------------
G|----------------|----------------|----------------|----------------
D|--5---5---5---5-|--5---5---5---5-|--5---5---5---5-|----7-------7---
A|----5-------5---|----5-------5---|----5-------5---|--5---5---5---5-
D|----------------|----------------|----------------|----------------

E|----------------|----------------|----------------|----------------
B|----------------|----------------|----------------|----------------
G|----------------|----------------|----------------|----------------
D|--5---5---5---5-|--5---5---5---5-|--5---5---5---5-|----7-------7---
A|----5-------5---|----5-------5---|----7-------7---|--5---5---5---5-
D|----------------|----------------|----------------|----------------

Listen closely (w/ a pair of headphones would be best) to hear when
to start playing and when to play.

Pre-Chorus:
[ Tab from: http://www.guitartabs.cc/tabs/e/eve_6/heres_to_the_night_tab.html ]
E|------------------|-----------------|-----------------
B|------------------|-----------------|-----1-------1---
G|-----0-2------0-2-|-----0-------0---|---0---0---0---0-
D|---0--------0-----|---0---0---0---0-|-----------------
A|------------------|-----------------|-3-------3-------
D|-2--------5-------|-2-------0-------|-----------------

Chorus:

G1:
E|--5---5-5-5-5-5---3--|--3-----3--
B|--3---3-3-3-3-3---3--|-----3----
G|---------------------|----------
G2:
D|--5-----5------7-----|--5-----5-------7----
A|-----5------5-----5--|-----5-------5-----5-
D|---------------------|---------------------

Play above twice then:

G1:
E|-3---2---3---2---|-3---2---3---5--
B|-3---3---3---3---|-3---3---3---3--
G|-----------------|----------------
G2:
D|-----5-------5---|-----5-------5--
A|---5---5---5---5-|---5---5---5----
D|-----------------|----------------

Bridge:

G1
E|-----------------|-----------------
B|-------3---------|-------3---------
G|-----3-----------|-----5---5-------
D|---5-------5---5-|---3-------3---3-
A|-6-----------6---|-3-----------3---
D|-----------------|-----------------

G2:
D|-1-1-1-1-1-1-1-1-|-3-3-3-3-3-3-3-3-
A|-1-1-1-1-1-1-1-1-|-3-3-3-3-3-3-3-3-
D|-1-1-1-1-1-1-1-1-|-3-3-3-3-3-3-3-3-

Play above twice then G1:

E|-----------------
B|---------3-------
G|-----5-----5---5-
D|---3---3-----3---
A|-3---------------
D|-----------------

Outro:

First part is very similar to G1 on Chorus. Just listen to it.

Second part: Palm Muted
E|-----------------
B|-----------------
G|-----------------
D|-----------------
A|-5---5---5---5---
D|---5---5---5---5-

Repeat until fade. 
:: Ultimate Guitar Archive :: 
http://www.ultimate-guitar.com 

Comments