Eve 6 - Girlfriend Chords & Tabs

 

Girlfriend Chords & Tabs

Eve 6 Chords & Tabs

Version: 1 Type: Tab 0 ratings
1 star 2 stars 3 stars 4 stars 5 stars
comments

Girlfriend Tab

-------------------------------------------------------------------------------
			     GIRLFRIEND - Eve 6
-------------------------------------------------------------------------------

Tabbed by: Melissa W.
Email: eastsidepeppie@aol.com

Tuning: Standard

Finger-picking:
e|--x--x---------------------------------------------------------------------|
B|--x--x---------------------------------------------------------------------|
G|--0--0---------------------------------------------------------------------|
D|--0--2---------------------------------------------------------------------|
A|--2--3---------------------------------------------------------------------|
E|--3--0---------------------------------------------------------------------|

Chorus:
e|--3--3--2--3--3--3--3--2--3--3--2--3--3--3--2--3---------------------------|
B|--3--3--3--3--3--3--3--3--3--3--3--3--3--3--3--3---------------------------|
G|--0--0--2--0--0--0--2--2--0--0--2--0--0--0--2--0---------------------------|
D|--2--0--0--2--2--2--0--0--2--0--0--2--2--2--0--0---------------------------|
A|--3--2-----2--3--2--------3--2-----2--3--2-----2---------------------------|
E|--0--3-----0--0--0--------0--3-----0--0--0-----3---------------------------|

e|--3--2---------------------------------------------------------------------|
B|--3--3---------------------------------------------------------------------|
G|--0--2---------------------------------------------------------------------|
D|--2--0---------------------------------------------------------------------|
A|--2------------------------------------------------------------------------|
E|--0------------------------------------------------------------------------|
"...But keep the slowly fading memories."
[ Tab from: http://www.guitartabs.cc/tabs/e/eve_6/girlfriend_tab.html ]
verse 2:
e|--3--3---------------------------------------------------------------------|
B|--3--3---------------------------------------------------------------------|
G|--0--0---------------------------------------------------------------------|
D|--0--2---------------------------------------------------------------------|
A|--2--3---------------------------------------------------------------------|
E|--3--0---------------------------------------------------------------------|

Chorus

e|--3--2---------------------------------------------------------------------|
B|--3--3---------------------------------------------------------------------|
G|--0--2---------------------------------------------------------------------|
D|--2--0---------------------------------------------------------------------|
A|--2------------------------------------------------------------------------|
E|--0------------------------------------------------------------------------|
(hold second chord out longer)

e|--3--3---3--3--------------------------------------------------------------|
B|--3--3---3--3--------------------------------------------------------------|
G|--0--0---0--0--------------------------------------------------------------|
D|--0--2---0--2--------------------------------------------------------------|
A|--2--3---2--3--------------------------------------------------------------|
E|--3--0---3--0--------------------------------------------------------------|
"Memories...memories."

e|--3--3--3--3---------------------------------------------------------------|
B|--3--3--3--3---------------------------------------------------------------|
G|--0--0--0--0---------------------------------------------------------------|
D|--2--2--2--2---------------------------------------------------------------|
A|--2--3--2--3---------------------------------------------------------------|
E|--0--0--0--0---------------------------------------------------------------|

e|--3--2---------------------------------------------------------------------|
B|--3--3---------------------------------------------------------------------|
G|--0--2---------------------------------------------------------------------|
D|--2--0---------------------------------------------------------------------|
A|--2------------------------------------------------------------------------|
E|--0------------------------------------------------------------------------|
"I'm keeping these memories."

Chorus

End on G
Comments