Eve 6 - Foiled Again Chords & Tabs

 

Foiled Again Chords & Tabs

Eve 6 Chords & Tabs

Version: 1 Type: Tab 0 ratings
1 star 2 stars 3 stars 4 stars 5 stars
comments

Foiled Again Tab

   
Foiled Again- Eve 6
CD: Eleventeen
Tabber: Mitchell (Mitchell_J@hotmail.com)
Tuning: Standard

This is probably the best indy Eve 6 song, and here's the tab for it!
There should be absolutely nothing wrong with it, error-free!

Intro: dirty tone... then some clean strums of the same chord come in
e ----------------------------------
B ----------------------------------
G -9--9-9---9-9-9---9--9-9---9-9-9--
D -9--9-9---9-9-9---9--9-9---9-9-9--
A -7--7-7---7-7-7---7--7-7---7-7-7--
E ----------------------------------

Main Riff:
e -0-0-0--0-0-0---------------------------------------------
B -0-0-0--0-0-0---------------------------------------------
G -1-1-1--1-1-1----------------7-7-7--7-7-7-----------------
D -2-2-2--2-2-2--5-5-5--5-5-5--7-7-7--7-7-7--7-7-7-7-7-7-7--
A -2-2-2--2-2-2--5-5-5--5-5-5--5-5-5--5-5-5--7-7-7-7-7-7-7--
E -0-0-0--0-0-0--3-3-3--3-3-3----------------5-5-5-5-5-5-5--

Octave riff:
e ---------------------------------------------------------------
B ---------------------------------------------------------------
G -9-9-9-9/16--14-14-14-14--13/14-14-14-14--13/14-14-14--/16-16--
D -x-x-x-x-x---x--x--x--x---x--x--x--x--x---x--x--x--x----x--x---
A -7-7-7-7/14--12-12-12-12--11/12-12-12-12--11/12-12-12--/14-14--
E ---------------------------------------------------------------

First part of verse:
e ----------------------------------------------
B ----------------------------------------------
G -------------------------7-7-7-7--------------
D -2-2-2-2--x--5-5-5-5--x--7-7-7-7--x--7-7-7-7--
A -2-2-2-2--x--5-5-5-5--x--5-5-5-5--x--7-7-7-7--
E -0-0-0-0--x--3-3-3-3--x-----------x--5-5-5-5--
[ Tab from: http://www.guitartabs.cc/tabs/e/eve_6/foiled_again_tab.html ]
Chorus:
e --------------------------------------------------|------------------------------
B --------------------------------------------------|------------PM-------PM-------
G -5-5-5-5-5---------7-7-7--------------------7-7-7-|---------------------7-7-7-7--
D -5-5-5-5-5--5-5-5--7-7-7--7-7-7-7-7--5-5-5--7-7-7-|-7-7-7-7-7--5-5-5-5--7-7-7-7--
A -3-3-3-3-3--5-5-5--5-5-5--7-7-7-7-7--5-5-5--5-5-5-|-7-7-7-7-7--5-5-5-5--5-5-5-5--
E ------------3-3-3---------5-5-5-5-5--3-3-3--------|-5-5-5-5-5--3-3-3-3-----------

Bridge:
e --------------------|-----------------------------------------------------
B --------------------|-(all palm muted)------------------------------------
G ------5~---7~---9~--|--------------5-5-5-5-5-5--7-7-7-7-7-7--9-9-9-9-9-9--
D -7~---5~---7~---9~--|-7-7-7-7-7-7--5-5-5-5-5-5--7-7-7-7-7-7--9-9-9-9-9-9--
A -7~---3~---5~---7~--|-7-7-7-7-7-7--3-3-3-3-3-3--5-5-5-5-5-5--7-7-7-7-7-7--
E -5~-----------------|-5-5-5-5-5-5-----------------------------------------

Ending: "I'm not the one who fills your dreams"
e ----------------------------------------------|-----------
B ----------------------------------------------|-----------
G -------------------------------9-9-9-9-9-9-9--|-----------
D -9-9-9-9-9-9-9-9--7-7-7-7-7-7--9-9-9-9-9-9-9--|--2---10/--
A -9-9-9-9-9-9-9-9--7-7-7-7-7-7--7-7-7-7-7-7-7--|--2---10/--
E -7-7-7-7-7-7-7-7--5-5-5-5-5-5-----------------|--0---8/---

Chords:	E  E5  G5  A5  B5  C5  D5  E5(2)
e	0  x   x   x   x   x   x    x
B	0  x   x   x   x   x   x    x
G	1  x   x   x   x   5   7    9
D	2  2   5   7   9   5   7    9
A	2  2   5   7   9   3   5    7
E	0  0   3   5   7   x   x    x

Tab originally from http://diehardtabs.tripod.com
Comments