Eve 6 - Enemy Chords & Tabs

 

Enemy Chords & Tabs

Eve 6 Chords & Tabs

Version: 1 Type: Tab 0 ratings
1 star 2 stars 3 stars 4 stars 5 stars
comments

Enemy Tab

   
Name: eeĆn

Tabs: Artist: Eve 6
Song: Enemy
Album: Horrorscope

This is an awesome song that I would really expect to be their new 
single sometime soon.  This tab is right on, so dont worry about any 
mistakes. Pretty easy song, enjoy! Any questions, comments or corrections can 
be emailed to DaMuZikBoi@aol.com.

Tuning: Drop D
D - A - D - G - B - E

Intro (played by synth, but you can play this note on a guitar with a 
phaser or somethin to sound cool):
E-----------------------------------
B-----------------------------------
G-------(fade in)-------------------
D-----------------------------------
A--5-5-5-5-5-5-5-5-5-5-5-5-5-5-5-5--
D-----------------------------------

Intro & Chorus Riff  Play 8x: (with light dist.)
E--5-5--x-x-x-x--5-5--x-x-x-x-x-x-x----
B--5-5--x-x-x-x--5-5--x-x-x-x-x-x-x----
G--7-7--x-x-x-x--7-7--x-x-x-x-x-x-x----
D--7-7--x-x-x-x--7-7--x-x-x-x-x-x-x----
A--5-5--x-x-x-x--5-5--x-x-x-x-x-x-x----
D--x-x--x-x-x-x--x-x--x-x-x-x-x-x-x----

PreChorus #1: (add heavy dist. at end of riff)
E--5-5--x-x-x-x-x-x---------------------------------------
B--5-5--x-x-x-x-x-x---------------------------------------
G--7-7--x-x-x-x-x-x-----(palm mute)--------(open)---------
D--7-7--x-x-x-x-x-x---7-7-7-7-7-7-7-7----7-7-7-7-7-7-7-7
A--5-5--x-x-x-x-x-x---7-7-7-7-7-7-7-7----7-7-7-7-7-7-7-7
D--x-x--x-x-x-x-x-x---7-7-7-7-7-7-7-7----7-7-7-7-7-7-7-7

Chorus 3x: (heavy dist.)
E------------------------------x-----------------
B------------------------------x-----------------
G--7-7--7--7--7----------5--5--x-----------------
D--7-7--7--7--7--7-7--7--5--5--x--5--5-----------
A--5-5--5--5--5--7-7--7--3--3--x--5--5-----------
D----------------7-7--7--------x--5--5-----------

E--------------------------------------
B--------------------------------------
G--7-7--7--7--7----------5-------------
D--7-7--7--7--7--7-7--7--5---4h5--4h5--
A--5-5--5--5--5--7-7--7--3---4h5--4h5--
D----------------7-7--7------4h5--4h5--

Back to Verse Riff for 8x

~At 6th rep, Gtr. 2 plays this fill for 2x:
(crunchy dist., but not too loud)                       
E--------------------------------------------------------
B---(palm mute)-----(open)--------------------(open)-----
G--7-7-7-7-7-7-7-7----3--------(palm mute)------7---(dont play
D--7-7-7-7-7-7-7-7----3------5-5-5-5-5-5-5-5----7----last chord
A--5-5-5-5-5-5-5-5----5------5-5-5-5-5-5-5-5----5----on 2nd rep)
D----------------------------5-5-5-5-5-5-5-5-------------

PreChorus #2 (Gtr. 1 and Gtr.2 match up to play this riff):
E--------------------------------------------------------
B--------------------------------------(open)------------
G---------(palm mute)----------------7-7-7---6--6--------
D--7-7-7-7-7-7-7-7-7-7-7-7-7-7-7-7---7-7-7---7--7--------
A--7-7-7-7-7-7-7-7-7-7-7-7-7-7-7-7---7-7-7---7--7--------
D--7-7-7-7-7-7-7-7-7-7-7-7-7-7-7-7---7-7-7---7--7--------
[ Tab from: http://www.guitartabs.cc/tabs/e/eve_6/enemy_tab.html ]
Chorus 3x:
E------------------------------x-----------------
B------------------------------x-----------------
G--7-7--7--7--7----------5--5--x-----------------
D--7-7--7--7--7--7-7--7--5--5--x--5--5-----------
A--5-5--5--5--5--7-7--7--3--3--x--5--5-----------
D----------------7-7--7--------x--5--5-----------

E--------------------------------------
B--------------------------------------
G--7-7--7--7--7----------5-------------
D--7-7--7--7--7--7-7--7--5---4h5--4h5--
A--5-5--5--5--5--7-7--7--3---4h5--4h5--
D----------------7-7--7------4h5--4h5--

Bridge  Play 5x: (No FX)
E-------------------------------------------
B--7----7----7-----7----8----8----8----10---
G----7----7----7-----7----7----7----7----7--
D-------------------------------------------
A-------------------------------------------
D-------------------------------------------

Bridge cont.  Play 1x: (back to heavy dist.)
E---------------------------------------------------|-----------
B--------------(palm mute all until bar)------------|-----------
G-7-7-7-7-7-7-7-7-----------------------------------|--(open)---
D-7-7-7-7-7-7-7-7--7-7-7-7-7-7-7-7--5-5-5-5-5-5-5-5-|-5-5-5-5-5-
A-5-5-5-5-5-5-5-5--7-7-7-7-7-7-7-7--5-5-5-5-5-5-5-5-|-5-5-5-5-5-
D------------------7-7-7-7-7-7-7-7--5-5-5-5-5-5-5-5-|-5-5-5-5-5-

Bridge cont. Play 2x: (with huge dist., big entrance)
Key change from DM up to EM 
E------------------------------------------------
B------------------------------------------------
G---9-9--9--9--9---------9-9--9--9--9------------
D---9-9--9--9--9--9-9-9--9-9--9--9--9--7-7-7-----
A---7-7--7--7--7--9-9-9--7-7--7--7--7--7-7-7-----
D-----------------9-9-9----------------7-7-7-----

E-----------------------------------
B-----------------------------------
G--9-9--9--9--9---------------------
D--9-9--9--9--9--9-9-9---7-7-7-7----
A--7-7--7--7--7--9-9-9---7-7-7-7----
D----------------9-9-9---7-7-7-7----

Back to Chorus  Play 1x:
Key change from EM back to DM
E--------x-x------------x--------------
B--------x-x------------x--------------
G--7/----x-x------5--5--x--------------
D--7/----x-x--7---5--5--x--5-5--5------
A--5/----x-x--7---3--3--x--5-5--5------
D--------x-x--7---------x--5-5--5------

Resume Normal Chorus  Play 2x:
E------------------------------x-----------------
B------------------------------x-----------------
G--7-7--7--7--7----------5--5--x-----------------
D--7-7--7--7--7--7-7--7--5--5--x--5--5-----------
A--5-5--5--5--5--7-7--7--3--3--x--5--5-----------
D----------------7-7--7--------x--5--5-----------

Outro Chorus  Play 3x:
E---------------------------
B---------------------------
G---7-7---------5-5---------
D---7-7---7-7---5-5---5-5---
A---5-5---7-7---3-3---5-5---
D---0-0---7-7---------5-5---

Outro Chorus cont.  Play 1x:
E-----------------------------------------
B-----------------------------------------
G---7-7---------5-------------------------
D---7-7---7-7---5---4h5--4h5---0----------
A---5-5---7-7---3---4h5--4h5---0----------
D---0-0---7-7-------4h5--4h5---0----------

Comments