Eve 6 - At Least Were Dreaming Chords & Tabs

 

At Least Were Dreaming Chords & Tabs

Eve 6 Chords & Tabs

Version: 1 Type: Bass Tab 0 ratings
1 star 2 stars 3 stars 4 stars 5 stars
comments

At Least Were Dreaming Bass Tab

   
Tune the strings to G,D,A,E

[Come in on 0:14]
--------
--------
--------
00--55--    Play this 18 times

----------------
----------------
----------------
00000000-555555-

-------------------
-------------------
--------------55-5-
7777-5555-0000--0-0    - 2x

-----------------------------
-----------------------------
-----------------------------
7777-5555-00000000-7777-5555-  - then you go into the verse

--------
--------
--------
00--55-- Play this 7 times

----------------
----------------
----------------
00000000-555555-

-------------------
-------------------
--------------55-5-
7777-5555-0000--0-0    - 2x
[ Tab from: http://www.guitartabs.cc/tabs/e/eve_6/at_least_were_dreaming_btab.html ]
-----------------------------
-----------------------------
-----------------------------
7777-5555-00000000-7777-5555-

----------------
----------------
--------00000000
00007777-------- Play this 6 times 

-------------------
-------------------
--------------55-5-
7777-5555-0000--0-0    - 2x

-------------------
-------------------
-------------------
7777-5555- 0. -----

---------------------------------------
---------------------------------------
---------------------------------------
7777-5555-7777-5555-7777-5555-7777-5555


-------------------
-------------------
--------00000000-0-
00007777----------3  - play 6 times - on the first time don't play the 3.

------------
------------
--------0*--
00007777--0*

uh... i hope i posted all of this right- its alot easier when you listen
for the parts in the song - thats it so... yeah.
Comments