Eve 6 - Arch Drive Goodbye Chords & Tabs

 

Arch Drive Goodbye Chords & Tabs

Eve 6 Chords & Tabs

Version: 2 Type: Tab 0 ratings
1 star 2 stars 3 stars 4 stars 5 stars
comments

Arch Drive Goodbye Tab

Song: Arch Drive Goodbye
By: Eve 6
Tab by: Caryn

Here's the opening to Arch Drive Goodbye. I'm pretty sure it's right but 
I could be slightly off. 
[ Tab from: http://www.guitartabs.cc/tabs/e/eve_6/arch_drive_goodbye_tab_ver_2.html ]
e-------------------------------
b-------------------------------
g-------------------------------
D--------4-------------2-1-1-2-
A----2-2--------6--------------
E-----------2-2----0-0---------

e-------------------------------
b-------------------------------
g-------------------------------
D--------4-------------2-1-1-2-
A----2-2--------6--------------
E-----------2-2----0-0---------

And that's pretty much it.



Comments