Eve 6 - Anytime Chords & Tabs

 

Anytime Chords & Tabs

Eve 6 Chords & Tabs

Version: 1 Type: Tab 1 rating
1 star 2 stars 3 stars 4 stars 5 stars
comments

Anytime Tab

   
Song: Anytime
Band: Eve 6
Album: Out Cold Soundtrack
Tabbed By:   Cam Liske
Questions/Comments: camlisker@hotmail.com
Tune: Dropped D (DADGBE)

Intro:

Gonna get in the car....
   probably...back...again
E|---------------------------|
B|---------------------------|
G|---------------------------|
D|--9---------7-------5------|
A|--9---------7-------5------|
D|--9---------7-------5------|

Interlude:
E|----------------|    E|--------------|
B|----------------|    B|--------------|
G|---------------o|    G|--------------|
D|--4-0-x-x---x--o|3x  D|-4-0-x-x--7---| Repeat whole line again
A|--4-0-x-x---x---|    A|-4-0-x-x--7---|
D|--4-0-x-x---x---|    D|-4-0-x-x--7---|

(let ring out)
E|------|
B|------|
G|------|
D|--0---|
A|--0---|
D|--0---|

  Verse 1: 
Just letting guitar ring out and just bass

Verse 2:
E|------------|      E|--------------------------------|
B|------------|      B|--------------------------------|
G|-----------o|      G|--------------------------------|
D|--4-0-x-x--o|4x    D|-9-9-x-x-7-7-x-x-5-0-x-x-4-0-x--|
A|--4-0-x-x---|      A|-9-9-x-x-7-7-x-x-5-0-x-x-4-0-x--|
D|--4-0-x-x---|      D|-9-9-x-x-7-7-x-x-5-0-x-x-4-0-x--|
    

Verse 3:
E|--------------------------------------------------------------------|
B|--------------------------------------------------------------------|
G|--12-12-x-x-11-11-x-x-12-12-x-x-11-11-x-x---------------------------|
D|--x--x--x-x-x--x--x-x-x--x--x-x-x--x--x-x-9-9-x-x-7-7-x-x-9-(strum)-|
A|--10-10-x-x-9--9--x-x-10-10-x-x-9--9--x-x-9-9-x-x-7-7-x-x-9-(strum)-|
D|------------------------------------------9-9-x-x-7-7-x-x-9-(strum)-|

Chorus:  (strum each chord unless a '*' appears above it which means stop)
E|---------------------------------|
B|---------------------------------|
G|-----------------*---------------|
D|-7-0-5-0-7-0-5-0-7-0-5-0-7-0-5-0-|
A|-7-0-5-0-7-0-5-0-7-0-5-0-7-0-5-0-|
D|-7-0-5-0-7-0-5-0-7-0-5-0-7-0-5-0-|

Interlude:
E|----------------------------|  
B|----------------------------|  
G|----------------------------| 
D|--4-0-x-x---x-4-0-x-x---7-0-|
A|--4-0-x-x---x-4-0-x-x---7-0-|
D|--4-0-x-x---x-4-0-x-x---7-0-|
[ Tab from: http://www.guitartabs.cc/tabs/e/eve_6/anytime_tab.html ]
Verse 4:
E|------------|      E|--------------------------------|
B|------------|      B|--------------------------------|
G|-----------o|      G|--------------------------------|
D|--4-0-x-x--o|4x    D|-9-9-x-x-7-7-x-x-5-0-x-x-4-0-x--|
A|--4-0-x-x---|      A|-9-9-x-x-7-7-x-x-5-0-x-x-4-0-x--|
D|--4-0-x-x---|      D|-9-9-x-x-7-7-x-x-5-0-x-x-4-0-x--|
    
Verse 5:
E|--------------------------------------------------------------------------|
B|--------------------------------------------------------------------------|
G|--12-12-x-x-11-11-x-x-12-12-x-x-11-11-x-x---------------------------------|
D|--x--x--x-x-x--x--x-x-x--x--x-x-x--x--x-x-9-9-x-x-7-7-x-x-5-0-x-x-x-x-4-0-|
A|--10-10-x-x-9--9--x-x-10-10-x-x-9--9--x-x-9-9-x-x-7-7-x-x-5-0-x-x-x-x-4-0-|
D|------------------------------------------9-9-x-x-7-7-x-x-5-0-x-x-x-x-4-0-|

Verse 6:
E|------------|      E|---------------------------|
B|------------|      B|---------------------------|
G|-----------o|      G|---------------------------|
D|--4-0-0-0--o|4x    D|-9-9-x-x-7-7-x-x-9-(strum)-|
A|--4-0-0-0---|      A|-9-9-x-x-7-7-x-x-9-(strum)-|
D|--4-0-0-0---|      D|-9-9-x-x-7-7-x-x-9-(strum)-|

Chorus same as first

Bridge GTR 1: Constant Strumming Palm Muted
E|------------|
B|------------|
G|------------|
D|------------|
A|--5555555...|
D|------------|

Bridge GTR 2: After 1 measure of GTR 1
E|---------------------------------------------------------------|
B|---------------------------------------------------------------|
G|---12-12-10-10-7/9/11-12-12-10-10-7/9/11-12-12-10-10-7/9/11----|
D|---x--x--x--x--x/x/x--x--x--x--x--x/x/x--x--x--x--x--x/x/x--5--|
A|---10-10-8--8--5/7/9--10-10-8--8--5/7/9--10-10-8--8--5/7/9--5--|
D|------------------------------------------------------------5--|

Chorus 2: Strum each chord
E|---------|
B|---------|
G|---------|
D|-0-2-4-5-| 4x
A|-0-2-4-5-| 
D|-0-2-4-5-|

Verse 3: Strum Each chord
E|---------|
B|---------|
G|---------|
D|-0-2-4-5-| 4x
A|-0-2-4-5-| 
D|-0-2-4-5-|

Outro:
E|----------------|    E|--------------|
B|----------------|    B|--------------|
G|---------------o|    G|--------------|
D|--4-0-x-x---x--o|3x  D|-4-0-x-x--7---| Repeat whole line 4x and end sharply on the last chord
A|--4-0-x-x---x---|    A|-4-0-x-x--7---|
D|--4-0-x-x---x---|    D|-4-0-x-x--7---|



Comments