Evanescence - Whisper Chords & Tabs

 

Whisper Chords & Tabs

Evanescence Chords & Tabs

Version: 4 Type: Tab 0 ratings
1 star 2 stars 3 stars 4 stars 5 stars
comments

Whisper Tab

Tuning: D standard (tune low E down to D, but tuning the 7th fret on the 6th string
to the open 5th, and from there do normal relative tuning)

/or\=slide
h=hammer on
.=palm mute

Intro 
-----------------------------------------------------------------------------
-----------------------------------------------------------------------------
-----------------------------------------------------------------------------
---------------------------------------------------------------2x------------
---7--7h8-----7---7h8-------5----7---7h8-----7---10-8---7-8-5----------------
-0---0----0-0---0-----0-0-5----0---0-----0-0---0------0----------------------
 .   .    . .   .     . .      .   .     . .   .      .

Pre-chorus
-----------------------------------------------------------------------------
-----------------------------------------------------------------------------
-----------------------------------------------------------------------------
-----------------------------------------------------------------------------
-7----9----12----10----------------------------------------------------------
-----------------------------------------------------------------------------

Chorus
-----------------------------------------------------------------------------
-----------------------------------------------------------------------------
-----------------------------------------------------------------------------
----5--7-----5--2------------------------2x----------------------------------
-2--3--5--2--3--0--4-4-4-5\4--4-4-4-5\4--------------------------------------
-0--------0--------2-2-2-3\2--2-2-2-3\2--------------------------------------
			   . .      . . .

[ Tab from: http://www.guitartabs.cc/tabs/e/evanescence/whisper_tab_ver_4.html ]
-----------------------------------------------------------------------------
-----------------------------------------------------------------------------
-----------------------------------------------------------------------------
---------------------------------------------------------------1x------------
---7--7h8-----7---7h8-------5----7---7h8-----7---10-8---7-8-5----------------
-0---0----0-0---0-----0-0-5----0---0-----0-0---0------0----------------------
 .   .    . .   .     . .      .   .     . .   .      .


For the second part of verse I just play the intro twice

Pre-chorus

Chorus

Bridge
-----------------------------------------------------------------------------
-----------------------------------------------------------------------------
-----------------------------------------------------------------------------
-----------------------------------------------------------------------------
-7----9----12----10--22--2-2--22--2-2--22--2-2--22--2-2---7-(let ring)-------
---------------------00--0-0--00--0-0--00--0-0--00--0-0----------------------

Solo
-----------------------------------------------------------------------------
-----------------------------------------------------------------------------
-----------------------------------------------------------------------------
-9\--9-9-7-9-10-10-10-9-7-7-5-7-9-9-9-7-5-5-4-5-7-5-4-5p4-5p4-5p4-5p4-5p4----
-----------------------------------------------------------------------------
-----------------------------------------------------------------------------

-----------------------------------------------------------------------------
-----------------------------------------------------------------------------
-----------------------------------------------------------------------------
-2-4-5-7-5-4-9-10-9-12-10-9-5-7-9-4-5-7-10p9-10p9-10p9-10p9-10p9-------------
-----------------------------------------------------------------------------
-----------------------------------------------------------------------------

Chorus 1x
Comments