Evanescence - Where Will You Go Chords & Tabs

 

Where Will You Go Chords & Tabs

Evanescence Chords & Tabs

Version: 1 Type: Tab 0 ratings
1 star 2 stars 3 stars 4 stars 5 stars
comments

Where Will You Go Tab

   
Girls Aloud - love machine
----------------------------

tabbed by: khalid

i think i  heared it like this please send any comments at (khassanain@hotmail.com)

----------------------------------------------------------------------------
Intro:
E|----------------|----------------|----------------|----------------||
B|----------------|----------------|----------------|----------------||
G|0---------------|-1-------------1|-0--------------|-1--------------||
D|---1-0-1----x2--|---1-0-1-3-1-0--|---1-0-1-----x2-|---1-0-1-3-1-0--||
A|----------------|----------------|----------------|---------------3||
E|----------------|----------------|----------------|----------------||

e|-------------------------------------|
B|-------------------------------------|
G|---------------------0/12------------|
D|---------------0/11------------------|
A|---------0/10------------------------|
E|---0/9-------------------------------|

u can keep playing like the intro or like that 

e|------------------|--------------------------------|
B|------------------|--------------------------------|
G|-00---------------|-11---------------------11------|
D|----11-00-11---x2-|----11-00-11---33-11-00---------|
A|------------------|--------------------------------|
E|------------------|--------------------------------|

e|------------------|--------------------------------|
B|------------------|--------------------------------|
G|-00---------------|-11-----------------------------|
D|----11-00-11---x2-|----11-00-11---33-11-00---------|
A|------------------|------------------------33------|
E|------------------|--------------------------------|


Chorus:
[ Tab from: http://www.guitartabs.cc/tabs/e/evanescence/where_will_you_go_tab.html ]
    F   D           C 
But whe-re will you go
     F                G#            G
When no-one's left to save you from yourself
F         D      
You can't escape
F   Eb    C
You can't Escape


Chorus 2:

    F   D           C 
But whe-re will you go
     F                G#            G
When no-one's left to save you from yourself
F         D          C
You can't escape the tru-th
F     D          C
I realize You're Afraid 
    F          G#      G
But you can't abandon everyone
F         D 
You won't Escape
F         Eb      C   
You don't want to escape

Chorus 3:

B   Ab          F#
whe-re will you go
     B                D             C#
When no-one's left to save you from yourself
B         Ab         F#
You can't escape the tru-th
B     Ab         F#
I realize You're Afraid
    B           D        C#
But you can't regect the whole world 
B         Ab     B         F#
You can't escape you won't escape
B         Ab    B   B     A       F#
You can't ecape you don't want to escape 


Outro:

E|----------------|----------------|----------------|----------------||
B|2---------------|3-------0----3--|2---------------|3-------0-------||
G|--2-1-2-X2------|--2-1-2---2-1---|--2-1-2----X2---|--2-1-2---2-1---||
D|----------------|----------------|----------------|--------------4-||
A|----------------|----------------|----------------|----------------||
E|----------------|----------------|----------------|----------------||

that's all .............enjoy
Comments