Evanescence - Thoughtless Chords & Tabs

 

Thoughtless Chords & Tabs

Evanescence Chords & Tabs

Version: 2 Type: Tab 0 ratings
1 star 2 stars 3 stars 4 stars 5 stars
comments

Thoughtless Tab

   
Evanescence Thoughtless (Korn Cover)
Standard or Drop D (it doesn't matter because you don't play that string for the intro)
[ Tab from: http://www.guitartabs.cc/tabs/e/evanescence/thoughtless_tab_ver_2.html ]
Piano intro for Guitar, also played in chorus
  D/F                             C
|-------------0--1---1---3---5----0---0------0------|
|-3---3---3------------------------------3----------|
|---2---2---2--2---2---2---2---2----0--0---0---0----|
|---------------------------------------------------|
|---------------------------------------------------|
|---------------------------------------------------|

  Bbm
|1---0-----------|
|--------3---1---|
|----------------|
|--3---3---3-----| Repeat
|----------------|
|----------------|      


This can be played in with the other versions of thoughtless that you find on the site.
Comments