Evanescence - Thoughtless Chords & Tabs

 

Thoughtless Chords & Tabs

Evanescence Chords & Tabs

Version: 1 Type: Tab 0 ratings
1 star 2 stars 3 stars 4 stars 5 stars
comments

Thoughtless Tab

Band- Evanescence
Song- Thoughtless

Tuning- dropped D

Pm- palm mute

Intro/ Verse
------------------------------------------------------------------------------------------|
------------------------------------------------------------------------------------------|
------------------------------------------------------------------------------------------|
-------5--------5  pm ------5--------5 pm --------7--------7 pm ------7-------8-8-8-8-----|
-------5--------5  pm ------5--------5 pm --------7--------7 pm ------7-------8-8-8-8-----|
---0---5--0-0---5  pm 0-0---5--0-0---5 pm-0-0-----7--0-0---7 pm 0-0---7-0-0 --8-8-8-8-----|

Pre Chorus
[ Tab from: http://www.guitartabs.cc/tabs/e/evanescence/thoughtless_tab.html ]
--------------------------------------------------------------|
--------------------------------------------------------------|
--------------------------------------------------------------|        X2
--5-5-5-6-6-6-4-4-4  pm  5-5-5-6-6-6-3-3-3-3-3-3-3-3----------|
--5-5-5-6-6-6-4-4-4  pm  5-5-5-6-6-6-3-3-3-3-3-3-3-3----------|
--5-5-5-6-6-6-4-4-4  pm  5-5-5-6-6-6-3-3-3-3-3-3-3-3----------|
I will let you figure out the strumming patterns for the chorus
Chorus

-----------------------------|
-----------------------------|
-----------------------------|
--7 ----10----5-----3--------|
--5 x8 -8 x8 -3 x8 -3--------|
--5 ----8 ----3-----1-------|
And the fill when Amy is singing quietly

--------------------------------|
--------------------------------|
--------------------------------|
--------------------------------|
-----5----5----5----6-6-6-6-----|
----00-0-0-0---0-0------------|
Comments