Evanescence - Taking Over Me Chords & Tabs

 

Taking Over Me Chords & Tabs

Evanescence Chords & Tabs

Version: 3 Type: Tab 0 ratings
1 star 2 stars 3 stars 4 stars 5 stars
comments

Taking Over Me Tab

   
Standard tuning

e|------------------------------------------------------------|
b|------------------------------------------------------------|
g|------------------------------------------------------------|
D|------------------------------------------------------------|
A|-7-7--7-7--7-7--7-7--7-7--7-7--3-3--3-3--3-3--2-2--2-2--2-2-|
E|-5-5--5-5--5-5--5-5--5-5--5-5--1-1--1-1--1-1--0-0--0-0--0-0-|

(Piano comes in)
You don't remember me but I remember you
I lie awake and try so hard not to think of you
(Come in)
But who can decide what they dream and dream I do

Chorus
   A5   G5 A5 F5  A5    E5  F5
e|------------------------------------------------------------|
b|------------------------------------------------------------|
g|------------------------------------------------------------|
D|------------------------------------------------------------|
A|-7-7-7--5/7/3--7-7-7--2-2--3-3-3----------------------------|
E|-5-5-5--3-5-1--5-5-5--0-0--1-1-1----------------------------|
[ Tab from: http://www.guitartabs.cc/tabs/e/evanescence/taking_over_me_tab_ver_3.html ]
 A5  G5/A5/F5
I believe in you
 A5         E5      F5
I'd give up everything just to find you
 A5   G5/A5/F5
I'll have to be with you
 A5
To live, to breathe
 E5        F5
Your taking over me

(Repeat this)

Bridge

I look in the mirror see your name
If I look deep enough
e|-----------------------------------------------------------|
b|-----------------------------------------------------------|
g|-----------------------------------------------------------|
D|-----------------------------------------------------------|
A|-7-7-7-7-7-7-7-7-7-7-7-7-7-7-7-7-7-7-7-7-------------------|
E|-5-5-5-5-5-5-5-5-5-5-5-5-5-5-5-5-5-5-5-5-------------------|

So many things that are just like you are taking over
e|-----------------------------------------------------------|
b|-----------------------------------------------------------|
g|-----------------------------------------------------------|
D|-----------------------------------------------------------|
A|-3-3-3-3-3-3-3-3-3-3-3-3-3-3-3-3-3-------------------------|
E|-1-1-1-1-1-1-1-1-1-1-1-1-1-1-1-1-1-------------------------|

And thats about it!!!
Comments