Evanescence - Taking Over Me Chords & Tabs

 

Taking Over Me Chords & Tabs

Evanescence Chords & Tabs

Version: 1 Type: Bass Tab 0 ratings
1 star 2 stars 3 stars 4 stars 5 stars
comments

Taking Over Me Bass Tab

Band- Evanescence
Song- Taking Over Me


Piano play

e--------------------------------------------------------------------|
b--------------------------------------------------------------------|
f--------------------------------------------------------------------|
c--------------------------------------------------------------------|

Riff #1 (0:10)
e--------------------------------------------------------------------|
b--------------------------------------------------------------------|
f--------------------------------------------------------------------|
c--9-9x-9-9--9-9x--9-9x-9-9--9-9x ---5-5x--5-5--5-5x--3-3x--3-3--3-3x|

interm»ž
e--------------------------------------------------------------------|
b--------------------------------------------------------------------|
f--------------------------------------------------------------------|
c---------------------------------9-------9--------5---------3-------|
[ Tab from: http://www.guitartabs.cc/tabs/e/evanescence/taking_over_me_btab.html ]
Riff #2
e--------------------------------------------------------------------|
b--------------------------------------------------------------------|
f--------------------------------------------------------------------|
c--9-9x-9-9--9-9x--9-9x-9-9--9-9x----5-5x--5-5--5-5x--3-3x--3-3------|

Riff #3
		 					 rest
e---------------------------------------------------------------------------|
b---------------------------------------------------------------------------|
f---------------------------------------------------------------------------|
c-9-99-79---67-5-\12/5------9-99-79°™6-7-5-5-7-5-6/11-10-9--------------|

Riff #1 X2
Riff #3 X2
But end is different,
play fill #1

Fill #1
e-------------------------------------|
b-------------------------------------|
f--------------------3333333333333333-|
c-5-555-xxx5-55-55-55-----------------|

--------------------------------------|
----------------------------------5---|
-----------------------------------3--|
5-555-xxx5-55-55-55333333333333333----|

Piano play and chord

Riff #3 X3
Comments