Evanescence - Sweet Sacrifice Chords & Tabs

 

Sweet Sacrifice Chords & Tabs

Evanescence Chords & Tabs

Version: 1 Type: Bass Tab 0 ratings
1 star 2 stars 3 stars 4 stars 5 stars
comments

Sweet Sacrifice Bass Tab

Intro
G|--------------------------------------------------|
D|--------------------------------------------------|
A|--------------------------------------------------|
E|-666-66666-666-6666--22-22222-222-2111------------|


Verse x4
G|--------------------------------------------------|
D|--------------------------------------------------|
A|--------------------------------------------------|
E|-6~~~~~~~-6~~~~~~~-6~~~~~~~-111-------------------|


Pre Chorus x6
G|--------------------------------------------------|
D|--------------------------------------------------|
A|--------------------------------------------------|
E|-44-66-44-----------------------------------------|


Chorus x2
G|--------------------------------------------------|
D|--------------------------------------------------|
A|--------------------------------------------------|
E|-4-66-4-7-6---4-66-4-7-6-666-666------------------|
[ Tab from: http://www.guitartabs.cc/tabs/e/evanescence/sweet_sacrifice_btab.html ]
G|--------------------------------------------------|
D|--------------------------------------------------|
A|--------------------------------------------------|
E|-4-66-4-7-6---4-66-4-7-6-222-222------------------|


Post Chorus x2
G|--------------------------------------------------|
D|--------------------------------------------------|
A|--------------------------------------------------|
E|-666-66666-666-6666--6/8/9---222-22222-222-2111111|


Verse x4
G|--------------------------------------------------|
D|--------------------------------------------------|
A|--------------------------------------------------|
E|-66~~~~~~~-66~~~~~~~-66~~~~~~~-/10-9-222----------|


Pre Chorus x3

Chorus x4


Bridge
G|-----------------------------------------------------|
D|-----------------------------------------------------| x3
A|-----------------------------------------------------|
E|-66666666-77777777-99999999--11-11-11-11-11-11-11-11-|

G|-----------------------------------------------------------------------|
D|-----------------------------------------------------------------------|
A|-----------------------------------------------------------------------|
E|-66666666-77777777-99999999--11-11-11-11-11-11-11-14-14-14-14-14-14-14-|


Chrous x3
Comments