Evanescence - October Chords & Tabs

 

October Chords & Tabs

Evanescence Chords & Tabs

Version: 4 Type: Tab 0 ratings
1 star 2 stars 3 stars 4 stars 5 stars
comments

October Tab

   
Author/Artist: Evanescence
Title: October
Album: Unreleased
Transcribed by: Ryan W
Email: pyrofreek_9@hotmail.com

Intro:
-|----------------------------------------------------------------------------
-|----------------------------------------------------------------------------
-|----------------------------------------------------------------------------
-|-----5-----3-----5-----3-----3--------------5-----3-----5-----3-----5/7-----
-|---3-----3-----3-----3-----3---3---3------3-----3-----3-----3-----3---------
-|-3-----3-----3-----3-----3-------3---3--2-----2-----2-----2-----2-----------
                                                                              

-------------------------------------------------------------------|-----------
-------------------------------------------------------------------|-----------
------------------------------------------0-----3------2-----------|-----------
------3-----5-----7-----5-----3---0-3---0-----0----0-----0---3-----|-----------
----0-----0-----0-----0-----0---1-----1-----1--------1-----1-------|-----------
--0-----0-----0-----0-----0----------------------------------------|-----------


Riff A:
-|----------------------------------------------------------|-----------------
-|----------------------------------------------------------|-----------------
-|-/10---9---7---5---3-3h5---/10---9---7/10---9---7h9---5---|-----------------
-|----------------------------------------------------------|-----------------
-|----------------------------------------------------------|-----------------
-|----------------------------------------------------------|-----------------

[ Tab from: http://www.guitartabs.cc/tabs/e/evanescence/october_tab_ver_4.html ]
Pre-chorus (guit 1):
-|----------------------------------------------------------------------------
-|----------------------------------------------------------------------------
-|----------------------------------------------------------------------------
-|-----3-----3-----0-----0h3p0---3-----3-----3-----3-----3-----3-----3-----0--
-|---3-----3-----0-----0-------0-----3-----3-----3-----3-----3-----3-----0----
-|-3-----2-----0-----0-------------3-----2-----3-----5-----3-----2-----0------
                                                                              

---------------------------------------|--------------------------------------
---------------------------------------|--------------------------------------
---------------------------------------|--------------------------------------
-----0h3p0---3------x--x-x-x--x-x-x-x--|--------------------------------------
---0-------0--------x--x-x-x--x-x-x-x--|--------------------------------------
-0------------------x--x-x-x--x-x-x-x--|--------------------------------------

Pre-chorus (guit 2):
-|--------------------------------------------------------------------------|-
-|--------------------------------------------------------------------------|-
-|-10---9---7---5---3-3h5-5/7---7/9---7/9---9/10---/10---9---7---5---3-3h5--|-
-|--------------------------------------------------------------------------|-
-|--------------------------------------------------------------------------|-
-|--------------------------------------------------------------------------|-

   
Chorus:
-|-------------------------------------|--------------------------------------
-|-------------------------------------|--------------------------------------
-|-------------3---5-----------2-------|--------------------------------------
-|-3---2---0---3---5---3---2---3---0---|--------------------------------------
-|-3---2---0---1---3---3---2---3---0---|--------------------------------------
-|-3---2---0-----------3---2-------0---|--------------------------------------


Interlude:
-|-------------------------------|
-|-------------------------------|
-|-------------------------------|
-|-----2-----3-----5-----7-----10|
-|---0-----0-----0-----0-----0---|
-|-0-----0-----0-----0-----0-----|




Intro           -4x
Intro/Riff A    -2x

Pre-chorus      -1x
Chorus          -1x
Intro           -2x
Intro/Riff A    -2x

Pre-chorus      -1x
Chorus          -1x
Interlude       -6x
Chorus          -2x
Comments