Evanescence - October Chords & Tabs

 

October Chords & Tabs

Evanescence Chords & Tabs

Version: 3 Type: Tab 0 ratings
1 star 2 stars 3 stars 4 stars 5 stars
comments

October Tab

Evanescence 
October
Dropped D Tuning

|-----------------------------------------
|-----------------------------------------
|-----------------------------------------
|------5------3------5------3------3------
|----3------3------3------3------3---3--3-
|--3------3------3------3------3------3---

|---------------------------------------
|---------------------------------------
|---------------------------------------
|------5------3------5------3------5/7--
|----3------3------3------3------3------
|--2-----2-------2------2-------2-------

|-------------------------------------------------------------
|-------------------------------------------------------------
|------------------0----------2----------0--------------------
|------3-------------------------------------------3\2--------
|----0---------0----------0----------0--------0---------------
|--0--------0----------0----------0---------0-----------------
[ Tab from: http://www.guitartabs.cc/tabs/e/evanescence/october_tab_ver_3.html ]
|--------------------------------------------------------------
|--------------------------------------------------------------
|---------0-------3--------5------3-------3-------3------------
|------3--------3-------3-------3-------3-------3----3----3----
|---1--------1-------1--------1-------1------1----------1------
|--------------------------------------------------------------
Beginning verses... changes later to this

|--------------------------------------------------------
|--------------------------------------------------------
|--------------------------------------------------------
|-------3-------3------0-------0h3p0----3----------------
|-----3-------3------0-------0---------0-----------------
|---3-------2------0-------0-----------------------------

|----------------------------------------------------------------------
|----------------------------------------------------------------------
|----------------------------------------------------------------------
|------3------3------3-------3------3------3-------0--------0h3p0----3-
|----3------3------3-------3------3------3-------0--------0---------0--
|--3------2------3-------5------3------2-------0--------0--------------

Thanx to gregg_gilmore@hotmail.com cause i used his tab but lowered it cause i
thought it sounded closer... im working on the tabs... hopefully will have those soon
Comments