Evanescence - October Chords & Tabs

 

October Chords & Tabs

Evanescence Chords & Tabs

Version: 1 Type: Tab 2 ratings
1 star 2 stars 3 stars 4 stars 5 stars
comments

October Tab

Evanescence 
October
Dropped D Tuning

|--------------------------------------------------
|--------------------------------------------------
|--------------------------------------------------
|--------5------3--------5--------3--------3-------
|-----3------3--------3--------3-------------------
|--3------3--------3--------3--------3--5-----5----

|-------------------------------------------------
|-------------------------------------------------
|-------------------------------------------------
|--------5--------3--------5--------3--------5/7--
|-----3--------3--------3--------3--------3-------
|--2--------2--------2--------2--------2----------
[ Tab from: http://www.guitartabs.cc/tabs/e/evanescence/october_tab.html ]
|--------------------------------------------------------
|--------------------------------------------------------
|-----------------0--------2--------0--------------------
|--------3-----------------------------------32---------
|-----0--------0--------0--------0--------0--------------
|--0--------0--------0--------0--------0-----------------

|-----------------------------------------------
|-----------------------------------------------
|------------------0-------3--------2-----------
|---------3----------------------------------3*-        *Omit second time through
|---1--3-----1--3----1--3-----3--1-----3--1-----
|-----------------------------------------------



Haven't figured out the rest yet, so I won't pretend
I do like many people, but this much I know after listening
to it time-scaled down.  Long live guitar tabs!
Comments