Evanescence - Imaginary Chords & Tabs

 

Imaginary Chords & Tabs

Evanescence Chords & Tabs

Version: 3 Type: Tab

Imaginary Tab

Tabbed by: mjwashere2005
Email: juvearesik@hotmail.com

Tuning: drop d

Intro
e|-------------------------------------------|
B|-------------------------------------------|
G|-------------------------------------------|
D|---55-5-5-5-5-55--11-1-1-1-11--1--0--1--3--|
A|---55-5-5-5-5-55--11-1-1-1-11--1--0--1--3--|
D|---55-5-5-5-5-55--11-1-1-1-11--1--0--1--3--|

Chorus (just like intro only rung out)
e|--------------------------------------------|
B|--------------------------------------------|
G|--------------------------------------------|
D|---5--5--5--5----5---1--1--1---1---0--1--3--|
A|---5--5--5--5----5---1--1--1---1---0--1--3--|
D|---5--5--5--5----5---1--1--1---1---0--1--3--|
[ Tab from: http://www.guitartabs.cc/tabs/e/evanescence/imaginary_tab_ver_3.html ]
Bridge Guitar 1
e|------------------------------------------------------------|
B|------------------------------------------------------------|
G|------------------------------------------------------------|
D|-----555-777-88-101010-888--77--555--777-888--111-000--333--|
A|------------------------------------------------------------|
D|------------------------------------------------------------|


Bridge Guitar 2
e|----------------------------------------------------------------|
B|----------------------------------------------------------------|
G|----------------------------------------------------------------|
D|---555--777--88--101010--888--77--555--777--888--111--000--333--|
A|---555--777--88--101010--888--77--555--777--888--111--000--333--|
D|---555--777--88--101010--888--77--555--777--888--111--000--333--|

Order
Intro x2 0.00
Verse (no guitar)0.26
Chorus x4 0.52
Verse (no guitar)1.17
Chorus x4 1.41
Break (no guitar)2.11
Bridge (guitar 1 + 2) x2 2.49
Chorus x4 3.05
Intro x4 3.31

Hope you like this. its an awesome song especially the bridge hope you like that to.