Evanescence - Imaginary Chords & Tabs

 

Imaginary Chords & Tabs

Evanescence Chords & Tabs

Version: 1 Type: Bass Tab 0 ratings
1 star 2 stars 3 stars 4 stars 5 stars
comments

Imaginary Bass Tab

   
Band- Evanescence
Song- Imaginary


5 string Bass B E A D G

G|-------------------------------------------------------------------------|
D|-------------------------------------------------------------------------|
A|-------------------------------------------------------------------------|
E|-------------------------------------------------------------------------|
B|-5-55-5-5-5-55--1-11-1-1-3-1-3-1--5-55-5-5-5-55-1-11-11-3-1-3-1----------|(repeat)

Make sure each note is short and sweet


VERSE

G|------------------------------------------------------------------------|
D|------------------------------------------------------------------------|
A|------------------------------------------------------------------------|
E|-0--------0----------0-----------0-----------0---------0----------------|
B|---------1---3----1-3-----------1--3-----1-3----------1-----------------|

CHORUS (like intro only rung out
[ Tab from: http://www.guitartabs.cc/tabs/e/evanescence/imaginary_btab.html ]
G|------------------------------------------------------------------------|
D|------------------------------------------------------------------------|
A|------------------------------------------------------------------------|
E|------------------------------------------------------------------------|
B|-5--5-55-5-5-1-1-1-1-1-3-1-5-5--555-5-5-1-1--11-1-5-----------(repeat)--|

VERSE AGAIN

Lead into piano solo (no bass played leading to piano solo, all guitar)

PIANO SOLO, WAIT

(Opera Voice after piano solo does not follow guitar or choir voice)

G|-----------------------------------------------------------------------|
D|-----------------------------------------------------------------------|
A|-----------------------------------------------------------------------|
E|-----------------------------------------------------------------------|
B|-5-5-5-5-5-5-5-5-1-1-1-1-1-1-1-1-5-5-5-5-5-5-5-5-1-1-1-1-1-1-1---------|

Back into piano lead guitar solo.

Then follow out from CHORUS, and lead into INTRO.
Comments