Evanescence - Hello Chords & Tabs

 

Hello Chords & Tabs

Evanescence Chords & Tabs

Version: 1 Type: Bass Tab 0 ratings
1 star 2 stars 3 stars 4 stars 5 stars
comments

Hello Bass Tab

Band- Evanescence
Song- Hello

Verse (matches piano...throw in fills as you please)
G|------------|
D|------------|
A|-2--2--0----|
E|----------6-|

Chorus
G|--------------------------------------------------|
D|--------------------------------------------------|
A|-2------4--------2--------0-----------------------|
E|--------------------------------7---7p6--4--4h5-6-|
[ Tab from: http://www.guitartabs.cc/tabs/e/evanescence/hello_btab.html ]
Cello solo:
G|----------------------------------2----|
D|-4--------5---4---------------------2--|
A|-----------------5--7------4---0-------|
E|---------------------------------------|

Cello solo(cont.)
G|---------4----6-7-9----7---6-----2------|
D|--4--------4----------------------------|
A|----------------------------------------|
E|----------------------------------------|

Outro
G|--------------------------|
D|--------------------------|
A|-2------2-------2-------2-|
E|--------------------------|

SONG ORDER:
Verse  x3
Chorus x1
Verse  x3
Chorus x1
Verse  x2 -OR- Cello solo x 1
Chorus x1
Outro  x1

ENJOY!!!
Comments