Evanescence - Going Under Chords & Tabs

 

Going Under Chords & Tabs

Evanescence Chords & Tabs

Version: 8 Type: Tab 0 ratings
1 star 2 stars 3 stars 4 stars 5 stars
comments

Going Under Tab

   
tuning: standard

Verse 1:
e|-----------------------------------------------------------------------------|
B|-----------------------------------------------------------------------------|
G|--4-4---4--4-4---------------------------------------------------------------|
D|--4-4---4--4-4---------------------------------------------------------------|
A|--2-2---2--2-2---------------------------------------------------------------|
E|-----------------------------------------------------------------------------|
repeated all through the verse

G A   Bm    G
I'm dying again

chorus: x2
e|-----------------------------------------------------------------------------|
B|-----------------------------------------------------------------------------|
G|-4-4-4-4---------7-7-7-7-2-2-2-2---------------------------------------------|
D|-4-4-4-4-5-5-5-5-7-7-7-7-2-2-2-2---------------------------------------------|
A|-2-2-2-2-5-5-5-5-5-5-5-5-0-0-0-0---------------------------------------------|
E|----------3-3-3-3------------------------------------------------------------|

repeat same pattern as verse 1 for verse 2

repeat chorus x2 for chorus again

so go on and scream... (first chord played on "scream")
e|-----------------------------------------------------------------------------|
B|-----------------------------------------------------------------------------|
G|-----------------------------------4-4-4-4-4-4-4-4-4-4-4-4-4-4-4-4-----------|
D|--5-5-5-5-5-5-5-5-4-4-4-4-4-4-4-4-4-4-4-4-4-4-4-4-4-4-4-4-4-4-4-4------------|
A|--5-5-5-5-5-5-5-5-4-4-4-4-4-4-4-4-2-2-2-2-2-2-2-2-2-2-2-2-2-2-2-2------------|
E|--3-3-3-3-3-3-3-3-2-2-2-2-2-2-2-2--------------------------------------------|
[ Tab from: http://www.guitartabs.cc/tabs/e/evanescence/going_under_tab_ver_8.html ]
...broken again, i've got to breathe i can't keep going under
e|-----------------------------------------------------------------------------|
B|-----------------------------------------------------------------------------|
G|-----------------------------------------------------------------------------|
D|--5-5-5-5-5-5-5-5-4-4-4-4-4--------------------------------------------------|
A|--5-5-5-5-5-5-5-5-4-4-4-4-4--------------------------------------------------|
E|--3-3-3-3-3-3-3-3-2-2-2-2-2--------------------------------------------------|

solo:
e|-------0-2-3-5-7-12-----7-5--5-7-5--5-7-----7----7-7-7-7-7-5-3-2-0-3-2-0------|
B|-0-2-3----------------------7------7-------0----------------------------------|
G|------------------------------------------------------------------------------|
D|------------------------------------------------------------------------------|
A|------------------------------------------------------------------------------|
E|------------------------------------------------------------------------------|

                                       i'm dying again...
e|-------------12-10---------------------------------------------------------|
B|-3--0-3-0-3--------0-------------------------------------------------------|
G|---------------------------------------------------------------------------|
D|---------------------------------------------------------------------------|
A|---------------------------------------------------------------------------|
E|---------------------------------------------------------------------------|

repeat the chorus x4

ending:
e|-----------------------------------------------------------------------------|
B|-----------------------------------------------------------------------------|
G|-4-4---4--4-4----------------------------------------------------------------|
D|-4-4---4--4-4----------------------------------------------------------------|
A|-2-2---2--2-2----------------------------------------------------------------|
E|-----------------------------------------------------------------------------|

the solo is my interpretation of it... its how i play it... its really a pretty easy 
have fun with it
Comments