Evanescence - Going Under Chords & Tabs

 

Going Under Chords & Tabs

Evanescence Chords & Tabs

Version: 11 Type: Tab 0 ratings
1 star 2 stars 3 stars 4 stars 5 stars
comments

Going Under Tab

   
-------------------------------------------------------------------------------
Going Under [ABH w/ Terry's Solo] - Evanescence
-------------------------------------------------------------------------------
Song Title: Going Under [w/ Terry's Solo]
Band: Evanescence
Album: Anywhere But Home
Tabbed by: Glare
Tuning: Standard [Low To High] (EADGBe)

***UPDATED: Solo Corrected. (Sat and listened to it for 2 hrs.)***


Intro/Riff1: [Play Two Times Before Verse One]
e|------------|
B|------------|
G|------------|
D|------------|
A|-2-2--2-2-2-|
E|-2-2--2-2-2-|

Verse One: [Play TAB below 8 times]
e|------------|
B|------------|
G|------------|
D|------------|
A|-2-2--2-2-2-|
E|-2-2--2-2-2-|

NO CHORDS: "I'm GOING UNDER!"

Verse Two: [8 Times]
e|------------|
B|------------|
G|------------|
D|------------|
A|-2-2--2-2-2-|
E|-2-2--2-2-2-|

 
"I'm Dying Again."
Riff 2:   |Let Ring|
e|----------------|
B|----------------|
G|----------------|
D|-5~--7~------2~-|
A|-5~--7~----2----|
E|-3~--5~--0------|

 [Please listen to song for rhythm]
   Bm | G | D | A/C#m
e|-2----3---2----0--|
B|-3----3---3----2--|
G|-4----0---2----2--|
D|-4----0---0----2--|
A|-2----2--------4--|
E|-2----3-----------|
[ Tab from: http://www.guitartabs.cc/tabs/e/evanescence/going_under_tab_ver_11.html ]
[Use Riff One Once] "I'm Going Under!"
Verse Three: [Use Riff 1: 8 times]
Riff Two: Once.
Chorus: Once

Bridge: (Scream at me...) [Play the chords 8 times each]
G5: 35XXXX
F#m: 24XXXX
G5(again)

Solo: Terry's Solo:                                             PM----------|
e|------------------------|------------------------|-------------------------|
B|------------------------|------------------------|-------------------------|
G|------------------------|------------------------|-------------------------|
D|-9-9-7------------------|------------------------|-------------------------|
A|--------10-9-7-9-9-10-9-|-9-9-10-9-7-9-7---------|------------------7-9-10-|
E|------------------------|----------------10-9-9--|-10-9-7~-7~-7-9-10-------|

         
e|-------------------------------|
B|-------------------------------|
G|-------------------------------|
D|-7-----------------------------|
A|--------10-9-7-9-7-------------|
E|-------------------10-5~~------|

CHORUS: Once
"Going under" - Three Times
End with: Riff One (Once)


| /  slide up
| \  slide down
| h  hammer-on
| p  pull-off
| ~  vibrato
| +  Pinch harmonic
| x  Mute note / Don't play this string
===============================================================================

Notes:
I am sure this is 100%.
Listen to recording for beat/rhythm.
If anything is wrong, please PM me or comment and let me know what needs to be fixed.
Thanks, Glare.
Comments