Evanescence - Farther Away Chords & Tabs

 

Farther Away Chords & Tabs

Evanescence Chords & Tabs

Version: 1 Type: Bass Tab 0 ratings
1 star 2 stars 3 stars 4 stars 5 stars
comments

Farther Away Bass Tab

Band- Evanescence
Song- Farther Away

Tuning: Standard 

Intro/Chorus/Outro
G|--------------------------------------------------------------|
D|--------------------------------------------------------------|
A|--0-0-0----2-2-2----2-3-2----4-5-5-5-5-3-3-3-3-2-2-2-3-3-3-3--|         (x4)
E|---------1-------0--------------------------------------------|

Don�t play Verse #1(piano has bass line)

Chorus(look at Intro)
[ Tab from: http://www.guitartabs.cc/tabs/e/evanescence/farther_away_btab.html ]
 Verse #2
G|--------------------------------------------------------------|
D|--------------------------------------------------------------|
A|------0-0-0-0---0-0-0-0---0-0-0-0-----------------------------|
E|--------------------------------------------------------------| 

Chorus

 Verse #3
G|--------------------------------------------------------------|
D|--------------------------------------------------------------|
A|---0---2---5---7---0---2---5---7------------------------------|
E|--------------------------------------------------------------|

Chorus (x2)

Outro(look at Into)
Comments