Evanescence - Everybodys Fool Chords & Tabs

 

Everybodys Fool Chords & Tabs

Evanescence Chords & Tabs

Version: 4 Type: Tab 0 ratings
1 star 2 stars 3 stars 4 stars 5 stars
comments

Everybodys Fool Tab

Evanescence - Everybody's Fool
Tabbed by:John Riggione
e-mail:John_riggione@hotmail.com
Tuning: Standard  (eBGDAE)


NOTE: You guys figure out the timing and strumming patterns

/ = slide
pm = palm mute 


   Intro
  |-------------------------------------------------------------|
  |-6------6------6------6--------5------5------5------5--------|
  |----------------------------7------------------------------7-|
  |---7------7-----7------7---------7------7------7------7------|
  |-----5------5-----5------5---------5------5------5------5----|
  |-------------------------------------------------------------|



  |-------------------------------------------------------------|
  |-------------------------------------------------------------|
  |-7---10----7-------------------------------------------------|
  |-7pm-10----7-7/8--10--7-----2X-------------------------------| 
  |-5---8-----5-7/8--10--7--------------------------------------|
  |-------------5/6--8---5--------------------------------------|



Verses

  |-------------------------------------------------------------|
  |-------------------------------------------------------------|
  |-7-7----7-7--------------------------------------------------|
  |-7-7-pm-7-7-pm-10-10-10--------------------------------------|
  |-5-5----5-5----10-10-10--3X----------------------------------| 
  |---------------8--8--8---------------------------------------|
                                                                 >
                                                                  >( Repeat 2X )                
  |-------------------------------------------------------------|>
  |-------------------------------------------------------------|
  |----------7-7-7----------------------------------------------|
  |-8--5--7--7-7-7-pm-3-----------------------------------------|
  |-8--5--7--5-5-5----3-----------------------------------------|
  |-6--3--5-----------1-----------------------------------------|


2nd Verse Lead Part

  |--------------------|
  |--------------------|
  |--------------------|
  |--------3--2--------| 2X
  |-5--3---------------|
  |--------------------|



Chorus
[ Tab from: http://www.guitartabs.cc/tabs/e/evanescence/everybodys_fool_tab_ver_4.html ]
  |-------------------------------------------------------------|
  |-------------------------------------------------------------|
  |-7-7-7-------------------------------------------------------|
  |-7-7-7-7/8/7--10-10-10--7------------------------------------|
  |-5-5-5-7/8/7--10-10-10--7-2x---------------------------------|
  |-------5/6/5--8--8--8---5------------------------------------|

  |-------------------|------------------------------------------|
  |-------------------|------------------------------------------|
  |-------------------|-7--777----7-7-7--------------------------|
  |-8-8-8--7--5-5--8--|-7~-777-pm-7-7-7---10-10-10----2X---------|
  |-8-8-8--7--5-5--8--|-5--555----5-5-5---10-10-10---------------|
  |-6-6-6--5--3-3--6--|-------------------8--8--8----------------|



2nd Verse...

Lead Part


Chorus...



Bridge

  |-------------------------------------------------------------|
  |-------------------------------------------------------------|
  |-7-7-7-------------------------------------------------------|
  |-7-7-7-7/8/7--10-10-10--7--8--78--5--8778-8-7--10-10-10--7----|
  |-5-5-5-7/8/7--10-10-10--7--8--78--5--8778-8-7--10-10-10--7----|
  |-------5/6/5--8--8--8---5--6--56--3--6596-6-5--8--8--8---5----|



Chorus

  |-------------------------------------------------------------|
  |-------------------------------------------------------------|
  |-7-7-7-------------------------------------------------------|
  |-7-7-7-7/8/7--10-10-10--7------------------------------------|
  |-5-5-5-7/8/7--10-10-10--7-2x---------------------------------|
  |-------5/6/5--8--8--8---5------------------------------------| <<<
                                                                
  |-------------------|                                           <<< Repeat 3X  
  |-------------------|                                           
  |-------------------|                                           <<<
  |-8-8-8--7--5-5--8--|        
  |-8-8-8--7--5-5--8--|         
  |-6-6-6--5--3-3--6--|                                       


End

  |-------------------|
  |-------------------|
  |-7-777----10--7----|
  |-7-777-pm-10--7----|
  |-5-555----8---5----|
  |-------------------|
Comments