Evanescence - Even In Death Chords & Tabs

 

Even In Death Chords & Tabs

Evanescence Chords & Tabs

Version: 2 Type: Tab 0 ratings
1 star 2 stars 3 stars 4 stars 5 stars
comments

Even In Death Tab

Evanescence - Even in death (Origin)
Tabbed By: Himura
Email: himurabattousaix@hotmail.com
Tunning: Standard 


Intro

G|--------|
D|--------|
A|----1-2-|
E|--0-----|


Chorus

e|------------------|--------------------|
B|------------------|--------------------|
G|-9---7---5---4--8-|-9---7---5---4--8--9|
D|-9---7---5---4--8-|-9---7---5---4--8--9|
A|-7---5---3---2--6-|-7---5---3---2--6--7|
E|------------------|--------------------|


Back to Intro


Chorus Part 2.                     "...and I can love you..."

e|------------------|------------------|-------------|
B|------------------|------------------|-------------|
G|-9---7---5---4--8-|-9---7---5---4--8-|-5-----------|
D|-9---7---5---4--8-|-9---7---5---4--8-|-5---5---7---|
A|-7---5---3---2--6-|-7---5---3---2--6-|-3---5---7---|
E|------------------|------------------|-----3---5---|
   


Solo Part 1:


e|--------------------------------|
B|--------------------------------|
G|-------4--------------4---------|
D|-2-4-5---5-4-2----4-5---5-4-5-4-|
A|--------------------------------|
E|--------------------------------|


Solo Part 2:

e|------|
B|------| 
G|------|
D|------|A lot of times...
A|-2-2--|
E|-0-0--|


Solo Part 3
[ Tab from: http://www.guitartabs.cc/tabs/e/evanescence/even_in_death_tab_ver_2.html ]
e|---------------|-------------|
B|---------------|-------------|
G|---------------|-------------|
D|-----4-5-4-----|-4-5-4-2-4---|
A|-2---2-3-2---2-|-2-3-2-0-2-2-|
E|-0-----------0-|-----------0-|
   

Solo Part 4

e|------------------------------------------|
B|------------------------------------------|
G|------------------------------------------|
D|------------------------------------------|
A|---2-3-2-0-2---2-3-2-0-2------------------|
D|-0-----------0------------0-2-3-5-7-6-7---|

e|-------------------------------------------------------------------------------------------|
B|-------------------------------------------------------------------------------------------|
G|-------------------------------------------------------------------------------------------|
D|-------------------------------------------------------------------------------------------|
A|-------------------0-0-0-------------------0-0-0-2-2-2-0-0-0-2-2-2-3-3-3-2-2-2-3-3-3-5-5-5-|
E|-0-0-0-2-2-2-3-3-3-------3-3-3-2-2-2-3-3-3-------------------------------------------------|

			   
e|---------------|------------------------------------------------|
B|---------------|------------------------------------------------|
G|---------------|------------------------------------------------|
D|---------------|-----------10-9---------------------------------|
A|-3-3-3-5-7---6-|-10--10-10------10-10---10-12-12-10-9-----------|
E|---------------|----------------------12------------------------|


[Chorus] Part 2

Ending

''My darling, our love is forever''


D|-----|
A|-9\--|
E|-----|
Comments