Evanescence - Bring Me To Life Chords & Tabs

 

Bring Me To Life Chords & Tabs

Evanescence Chords & Tabs

Version: 3 Type: Tab 0 ratings
1 star 2 stars 3 stars 4 stars 5 stars
comments

Bring Me To Life Tab

Artist: Evanescence
Song: Bring me to life
Tabbed by: The Raven (sergio_news@hotmail.com)


Intro

E--7-5-5-8--12--7
B-0-0-0-0-0--0---0
G----------------
D----------------
A----------------
E----------------


OR, if you want: (made by myself, although it's totally different from the original one i think it sounds nice) 

2x

E---------0--------
B-----------0-------
G-----0-------0------
D---2---2-------2-----
A-2-------------------
E---------------------


2x
[ Tab from: http://www.guitartabs.cc/tabs/e/evanescence/bring_me_to_life_tab_ver_3.html ]
E---------0--------
B-----------1------
G-----0-------0-----
D---2---2-------2----
A-3------------------
E---------------------


Verse            Chorus      

E-0-3-------------0--3--5--0-
B-0-3-------------0--3--5--0-
G-0-5-------------0--3--7--0-
D-2-5-------------2--5--7--2-
A-2-3-------------2--5--5--2-
E-0-x-------------0--3--x--0-


after the second chorus:
                
  play 2 times           and then 2 times
               
E-3--5--0------------------0-2-3-2--5--3--2
B-3--5--0------------------0-2-3-2--5--3--2
G-5--7--0------------------0-2-3-4--5--3--2
D-5--7--2------------------2-4-5-4--7--5--4
A-3--5--2------------------2-4-5-2--7--5--4
E-x--x--0------------------0-2-3-x--5--3--2
Comments