Evanescence - Bring Me To Life Chords & Tabs

 

Bring Me To Life Chords & Tabs

Evanescence Chords & Tabs

Version: 1 Type: Tab 1 rating
1 star 2 stars 3 stars 4 stars 5 stars
comments

Bring Me To Life Tab

   
DROP D TUNING!!!

~ - ring out or fade in
* - pinch harmonic
... - palm mute
x
x - scratching
x
5x
5x - mute after strumming
3x

Intro:  Guitar 1 (Transcribed from piano to guitar)
e|7---7---7---7---7---7---7---7---7---7---7---7---7---7---7---7--------------|
B|--5---5---5---5---5---5---5---5--------------------------------------------|
G|----------------------------------5---5---5---5---5---5---5---5------------|
D|---------------------------------------------------------------------------|
A|---------------------------------------------------------------------------|
D|---------------------------------------------------------------------------|

Intro:  Guitar 2 (Transcribed from piano to guitar)
e|-7--5-7--8----12--7---7--5-7--8----12--7---------|
B|-------------------------------------------------|
G|-------------------------------------------------|
D|-------------------------------------------------|
A|-------------------------------------------------|
D|-------------------------------------------------|

Intro Cont'd:  (2x)
e|---------------------------------------------------------------------------|
B|---------------------------------------------------------------------------|
G|---------------------------------------------------------------------------|
D|~~~2------------------------------------------------*----------------------|
A|~~~2----2-2--2-2--2-2--2-2----2-2--2-2--2-2--2------2-3-3--3-3--3-3--3-3---|
D|~~~2----2-2--2-2--2-2--2-2----2-2--2-2--2-2--2--2-2---2-2--2-2--2-2--2-2---|
                                                  ...

Intro Cont'd:
e|-----------------------------|
B|-----------------------------|
G|-----------------------------|
D|-----------------------*-----|
A|-3-3--3-3--3-3--3------3-----|
D|-2-2--2-2--2-2--2--2-2-------|
                     ...

Chorus:  "Wake me up..."  (2x) (You figure out strumming pattern)
e|-------------------------|
B|-------------------------|
G|-------------------------|
D|--2----5----0----2-------|
A|--2----5----0----2-------|
D|--2----5----0----2-------|

Bridge:
e|---------------------------------|
B|---------------------------------|
G|---------------------------------|
D|------------------------*--------|
A|2-2--2-2--2-2--2-2------2--------|
D|2-2--2-2--2-2--2-2--2-2----------|
[ Tab from: http://www.guitartabs.cc/tabs/e/evanescence/bring_me_to_life_tab.html ]
Verse:  "Now that I know..."  (2x)
e|--------------------------------------------------------------|
B|--------------------------------------------------------------|
G|--------------------------------------------------------------|
D|------------------------x-x-----------------------*-----------|
A|2-2--2-2--2-2--2-2--2-2-x-x-2-2--2-2--2-2--2------2-----------|
D|2-2--2-2--2-2--2-2--2-2-x-x-2-2--2-2--2-2--2--2-2-------------|

Verse Cont'd:
e|--------------------------------------------------------------|
B|--------------------------------------------------------------|
G|--------------------------------------------------------------|
D|------------------------x-x-----------------------*-----------|
A|3-3--3-3--3-3--3-3--3-3-x-x-3-3--3-3--3-3--3------3-----------|
D|2-2--2-2--2-2--2-2--2-2-x-x-2-2--2-2--2-2--2--2-2-------------|

Repeat Chorus

Post Chorus:
e|---------------------------------------------|
B|---------------------------------------------|
G|5-5-5x------x-x---7-7-7x------x-x------------|
D|5-5-5x------x-x---7-7-7x------x-x------------|
A|3-3-3x------x-x---5-5-5x------x-x------------|
D|---------------------------------------------|

Post Chorus Cont'd:
e|--------------------------------------------------------------|
B|--------------------------------------------------------------|
G|--------------------------------------------------------------|
D|------------------------x-x-----------------------*-----------|
A|2-2--2-2--2-2--2-2--2-2-x-x-2-2--2-2--2-2--2------2-----------|
D|2-2--2-2--2-2--2-2--2-2-x-x-2-2--2-2--2-2--2--2-2-------------|

Post Chorus Cont'd:
e|------------------------------------------------|
B|------------------------------------------------|
G|5-5-5x------x-x---7-7-7x------x-x---------------|
D|5-5-5x------x-x---7-7-7x------x-x---------------|
A|3-3-3x------x-x---5-5-5x------x-x---------------|
D|------------------------------------------------|

Post Chorus Cont'd:
e|------------------------------------------------|
B|------------------------------------------------|
G|------------------------------------------------|
D|------------------------x-x---------------------|
A|2-2--2-2--2-2--2-2--2-2-x-x-------2-------------|
D|2-2--2-2--2-2--2-2--2-2-x-x-2-4-5---------------|

Breakdown: 
e|------------------------------------------------|
B|------------------------------------------------|
G|------------------------------------------------|
D|-5~---5~----------------5~---5~-----------------|
A|-3~---2~---5~---------2-3~---2~---5~------------|
D|-----------4~---2-4-5-------------4~------------|

Next Part:  (repeat the verse)

Repeat Chorus

Repeat Post Chorus

End On:
e|-------------|
B|-------------|
G|-------------|
D|---2~--------|
A|---2~--------|
D|---2~--------|
Comments