Evanescence - Breathe No More Chords & Tabs

 

Breathe No More Chords & Tabs

Evanescence Chords & Tabs

Version: 3 Type: Tab 0 ratings
1 star 2 stars 3 stars 4 stars 5 stars
comments

Breathe No More Tab

   
Breathe no more by Evanescence
Tabbed by Aries_Mata05, Chile

this is the live version.

d = downwards strum
u = upwards strum

VERSE1: after the piano
E|--------------------|--------------------|---------------------|------------------|
B|--------------------|--------------------|---------------------|------------------|
G|-----7------4-------|-----7--------------|-----7-------4-------|-----7------------|
D|------------------9-|------------7-----9-|------7------------9-|------------7-----|
A|---9------5-----7---|---9------5-----7---|---9-------5-----7---|---9------5-----7-|
E|-7------3-----5-----|-7------3-----5-----|-7-------3-----5-----|-7------3-----5---|

E|----------------------------------------------------------------------------------|
B|---------------------------3--3---2--2--2-2-2--------------------------2----------|
G|--------3-------------4----4--4---2--2--2-2-2--3----3-------------4------2--------|
D|------4---4---------5---5--4--4---2--2--2-2-2--4--4---4---------5----------2------|
A|----4-------2-0---5--------2--2---0--0--0-0-0--4--------2-0---5------0-------0----|
E|-2--------------3-------------------------------------------3---------------------|
		      strum: u  d   u  d  u d u

CHORUS1:	
E|----3------0------3---------------------------------------------------------------|
B|----4------2------4--------2p3-2--------------3----------2p3-2-------------3------|
G|----5------2------5------2-------2----------4---4------2-------2---------4---4----|
D|----5------2------5----2-----------2------4----------2-----------2-----4----------|
A|--------0------------0---------------0--2----------0---------------0-2----------0-|
E|-3-------------3------------------------------------------------------------------|

SOLO:
E|---------------------------------------10-9---------------------------------------|
B|---------------------------------------12---12-10-8-------------------------------|
G|---------------------------------------11-----------11-9-7------------------------|
D|---------------------------0-2-4-5-4----------------------11-9-7---7p9------------|
A|-7-5-4-5-----2p4-0---0-2-4---------------------------------------9----------------|
E|---------7------------------------------------------------------------------------|

VERSE2:
E|-------------|--------------------|--------------------|--------------------------|
B|-------------|--------------------|--------------------|--------------------------|
G|-------------|-----7--------------|-----7--------------|-----7--------------------|
D|-----7-----9-|------------7-----9-|------------7-----9-|------------7-----9-------|
A|---5-----7---|---9------5-----7---|---9------5-----7---|---9------5-----7---------|
E|-3-----5-----|-7------3-----5-----|-7------3-----5-----|-7------3-----5-----------|

[ Tab from: http://www.guitartabs.cc/tabs/e/evanescence/breathe_no_more_tab_ver_3.html ]
E|--------------------|--------------------|--------------------|-------------------|
B|--------------------|--------------------|--------------------|-------------------|
G|-----7------4-------|-----7--------------|-----7--------------|-----7-------------|
D|------------------9-|------------7-----9-|------------7-----9-|------------7------|
A|---9------5-----7---|---9------5-----7---|---9------5-----7---|---9------5-----7--|
E|-7------3-----5-----|-7------3-----5-----|-7------3-----5-----|-7------3-----5----|


E|----------------------------------------------------------------------------------|
B|---------------------------3--3---2--2--2-2-2----------------------------2--------|
G|-3--3-------------4--------4--4---2--2--2-2-2--3--3-------------4--------2--------|
D|-4----4---------5---5------4--4---2--2--2-2-2--4----4---------5---5------2--------|
A|-4------2-0---5-------5----2--2---0--0--0-0-0--4------2-0---5-------5----0--------|
E|-2----------3-----------3----------------------2----------3-----------0-----------|
		      strum: u  d   u  d  u d u

CHORUS2:	
E|----3------0------3---------------------------------------------------------------|
B|----4------2------4--------2p3-2--------------3----------2p3-2-------------3------|
G|----5------2------5------2-------2----------4---4------2-------2---------4---4----|
D|----5------2------5----2-----------2------4----------2-----------2-----4----------|
A|--------0------------0---------------0--2----------0---------------0-2------------|
E|-3-------------3------------------------------------------------------------------|

E|------------------3--3-3--3-3--0--0-0--0-0--3--3-3--3-3--0--0-0--0-0--------------|
B|-------3-2--------3--3-3--3-3--2--2-2--2-2--3--3-3--3-3--2--2-2--2-2--------3-----|
G|-----2-----2------4--4-4--4-4--2--2-2--2-2--4--4-4--4-4--2--2-2--2-2------4---4---|
D|---2---------2----5--5-5--5-5--2--2-2--2-2--5--5-5--5-5--2--2-2--2-2----4---------|
A|-0-------------0--5--5-5--5-5--0--0-0--0-0--5--5-5--5-5--0--0-0--0-0--2-----------|
E|------------------3--3-3--3-3---------------3--3-3--3-3---------------------------|
             strum: d  u d  d u  d  u d  d u  d  u d  d u  d  u d  d u

E|----------------------------------------------------------------------------------|
B|-------2p3-2-------------3----------3-2-------------------------------------------|
G|-----2-------2---------4---4------2-----2-----------------------------------------|
D|---2-----------2-----4----------2---------2---------------------------------------|
A|-0---------------0-2----------0-------------0---2------0------2------0------------|
E|----------------------------------------------------------------------------------|

listen the song to get the tabs correctly...
Any question, comments, etc, email me at aries_mata03@hotmail.com
Comments