Evanescence - Anywhere Chords & Tabs

 

Anywhere Chords & Tabs

Evanescence Chords & Tabs

Version: 1 Type: Bass Tab 0 ratings
1 star 2 stars 3 stars 4 stars 5 stars
comments

Anywhere Bass Tab

   
Band- Evanescence
Song- Anywhere

Tuning: Full Step Down (A D G C F)

this is a very good song
the rythm is simple and easy

verses
F|--------------------------------------------------------||
C|--------------------------------------------------------||
G|---7----7-----5----5-6-7--------------------------------||
D|5-5--5-5---3-3--3-3-------------------------------------||
A|--------------------------------------------------------||

pre-chorus(take my hand...)
F|--------------------------------------------------------||
C|--------------------------------------------------------||
G|--------------------------------------------------------||
D|3-5-7-12------------------------------------------------||
A|--------------------------------------------------------||
[ Tab from: http://www.guitartabs.cc/tabs/e/evanescence/anywhere_btab.html ]
chorus
F|--------------------------------------------------------||
C|--------------------------------------------------------||
G|-5------7---3-----5-7---10------------------------------||
D|3----5-5---1---3-3--------------------------------------||
A|----3---------1-----------------------------------------||

bridge
F|--------------------------------------------------------||
C|--------------------------------------------------------||
G|--------------------------------------------------------||
D|5---5---5---5------5---5--------------------------------||
A|-5---5-3--5--5-3----5---5-3-1~--------------------------||

guitar solo
F|--------------------------------------------------------||
C|--------------------------------------------------------||
G|---5--------7----3----------5-7--10~~~------------------||
D|33-----5--55---11------3--33----------------------------||
A|-----33--------------11---------------------------------||

back to chorus until end

ending(hey yeah...)
F|-------------------------------------||
C|-------------------------------------||
G|-------------------------------------||
D|5~~~~~~~~~~~~~~~~~~~~~~~~~~~~~~~~~~~~||
A|-------------------------------------||
Comments