Eva Cassidy - You Take My Breath Away Chords & Tabs

 

You Take My Breath Away Chords & Tabs

Eva Cassidy Chords & Tabs

Version: 1 Type: Tab 0 ratings
1 star 2 stars 3 stars 4 stars 5 stars
comments

You Take My Breath Away Tab

Here is a lovely song from Eva that I tabbed by listening. 
I´m shure its not always correct but it sounds o.k. to me that way

***************************************

You Take My Breath Away
Eva Cassidy

******************************************

---------0-------|---------0-------|---------0-------|---------0-------|
-------0-----0---|-------0-----0---|-------0-----0---|-------0-----0---|
-----1---------1-|-----2---------2-|-----4---------4-|-----2---------2-|
---2-------2-----|---4-------4-----|---6-------6-----|---4-------4-----|
-----------------|-----------------|-----------------|-----------------|
-0---------------|-0---------------|-0---------------|-0---------------|
Intro…

---------0-------|---------0-------|---------0-------|---------0-------|
-------0-----0---|-------0-----0---|-------0-----0---|-------0-----0---|
-----1---------1-|-----2---------2-|-----4---------4-|-----2---------2-|
---2-------2-----|---4-------4-----|---6-------6-----|---4-------4-----|
-----------------|-----------------|-----------------|-----------------|
-0---------------|-0---------------|-0---------------|-0---------------|
  
							r
-----------------|-0---------------|-----------------|-----------------|
------------0----|---4---2---------|--------0---0----|--------0---0----|
--------2--------|-------------4---|-----1--2---2----|-----1--2---2----|
------2---2------|-----4-----4---4-|---2------2-- 2--|---2------2-- 2--|
-2-0-------------|-2---------------|-----------------|-----------------|
-----------------|-----------------|-0---------------|-0---------------|
  

---------0-------|---------0-------|---------0-------|---------0-------|
-------0-----0---|-------0-----0---|-------0-----0---|-------0-----0---|
-----1---------1-|-----2---------2-|-----4---------4-|-----2---------2-|
---2-------2-----|---4-------4-----|---6-------6-----|---4-------4-----|
-----------------|-----------------|-----------------|-----------------|
-0---------------|-0---------------|-0---------------|-0---------------|
 
							r
-----------------|---0-------------|-----------------|-----------------|
-----------0--2--|-----4-----------|-----0--0---0----|-----0-------0---|
--------2--2--2--|-------4-----4---|-----1--2---2----|-----1-h-2---1---|
------2----------|-----------4---4-|---2------2-- 2--|---2-------------|
-2-0-------------|-2---------------|-----------------|-----------------|
-----------------|-----------------|-0---------------|-0---------------|


-0-----------0---|-------------0---|-0-----------0---|-----------------|
-------4-------4-|-----0-0-0-------|-------4-------4-|-----0--0--0-----|
-----4-----4-----|-----1-2-1-------|-----4-----4-----|-----1--2--1-----|
---4-----4-------|---2-------2---2-|---4-----4-------|---2-------------|
-2---------------|-----------------|-2---------------|-----------------|
-----------------|-0---------------|-----------------|-0---------------|


-0---------------|-----------------|--------------7--|-----------------|
-----------------|-----------7-----|-----------7-----|-----------------|
-----4-----------|-----8-------8---|--------8--------|-----------------|
---4---4-4-------|---9--9---9------|-----9-----------|-----------------|
-2------2--2/4-6-|-----------------|-----------------|-----------------|
-----------------|-7------7--------|-7---------------|-----------------|


----------------|----------5-------|-----------------|----------7------|
-------5-------4|--------5---------|------7-------7--|--------7--------|
-----6-------4--|------6-----------|----8---8---8----|------8----------|
---6-------4----|----5-------------|--7-------7------|----9------------|
-4-------2------|------------------|-----------------|-----------------|
----------------|-5----------------|-7---------------|-7---------------|


---------0-------|---------0-------|---------0-------|---------0-------|
-------0-----0---|-------0-----0---|-------0-----0---|-------0-----0---|
-----1---------1-|-----2---------2-|-----4---------4-|-----2---------2-|
---2-------2-----|---4-------4-----|---6-------6-----|---4-------4-----|
-----------------|-----------------|-----------------|-----------------|
-0---------------|-0---------------|-0---------------|-0---------------|



---------0-------|---------0-------|---------0-------|---------0-------|
-------0-----0---|-------0-----0---|-------0-----0---|-------0-----0---|
-----1---------1-|-----2---------2-|-----4---------4-|-----2---------2-|
---2-------2-----|---4-------4-----|---6-------6-----|---4-------4-----|
-----------------|-----------------|-----------------|-----------------|
-0---------------|-0---------------|-0---------------|-0---------------|

							
-----------------|---0-------------|-----------------|-----------------|
----------0--2---|-----4-----------|--------0---0----|--------0---0----|
--------2-2--2---|-------4-----4---|-----1--2---2----|-----1--2---2----|
------2----------|-----------4---4-|---2------2-- 2--|---2------2-- 2--|
-2-0-------------|-2---------------|-----------------|-----------------|
-----------------|-----------------|-0---------------|-0---------------|

[ Tab from: http://www.guitartabs.cc/tabs/e/eva_cassidy/you_take_my_breath_away_tab.html ]
---------0-------|---------0-------|---------0-------|---------0-------|
-------0-----0---|-------0-----0---|-------0-----0---|-------0-----0---|
-----1---------1-|-----2---------2-|-----4---------4-|-----2---------2-|
---2-------2-----|---4-------4-----|---6-------6-----|---4-------4-----|
-----------------|-----------------|-----------------|-----------------|
-0---------------|-0---------------|-0---------------|-0---------------|

							
-----------------|---0-------------|-----------------|-----------------|
------------0----|-----4-----------|--------0---0----|-----0------0----|
--------2--------|-------4-----4---|-----1--2---2----|-----1-h-2--1----|
------2---2------|-----------4---4-|---2------2-- 2--|---2-------------|
-2-0-------------|-2---------------|-----------------|-----------------|
-----------------|-----------------|-0---------------|-0---------------|


-0---------------|------------0----|-0---------------|-----------------|
-------4-------4-|-----0--0---0----|-------4-------4-|-----0--0--------|
-----4---4---4---|-----1--2--------|-----4---4---4---|-----1--2--------|
---4-------4-----|---2------2-- 2--|---4-------4-----|---2-------------|
-2---------------|-----------------|-2---------------|-----------------|
-----------------|-0---------------|-----------------|-0---------------|


-0---------------|-----------------|--------------7--|-----------------|
-----------------|-----------7-----|-----------7-----|-----------------|
-----4-----------|-----8-------8---|--------8--------|-----------------|
---4---4-4-------|---9--9---9------|-----9-----------|-----------------|
-2------2--2/4-6-|-----------------|-----------------|-----------------|
-----------------|-7------7--------|-7---------------|-----------------|


----------------|----------5-------|-----------------|-----------------|
-------5-------4|--------5---------|---------2-------|---------2-------|
-----6-------4--|------6-----------|-----4-------4---|-----4-------4---|
---6-------4----|----5-------------|---4---4---4---4-|---4---4---4---4-|
-4-------2------|------------------|-2---------------|-2---------------|
----------------|-5----------------|-----------------|-----------------|


---------0-------|---------0-------|---------0-------|---------0-------|
-------0-----0---|-------0-----0---|-------0-----0---|-------0-----0---|
-----1---------1-|-----2---------2-|-----4---------4-|-----2---------2-|
---2-------2-----|---4-------4-----|---6-------6-----|---4-------4-----|
-----------------|-----------------|-----------------|-----------------|
-0---------------|-0---------------|-0---------------|-0---------------|


Solo

-0---------------|-------------0---|-0-----------0---|-----------------|
-------4-------4-|-----0-0-0---0---|-0-----4-------4-|-----0--0--0-----|
-----4---4---4---|-----1-2-1-------|-----4---4-------|-----1--2--1-----|
---4-------4-----|---2-------2---2-|---4-------4-----|---2-------------|
-2---------------|-----------------|-2---------------|-----------------|
-----------------|-0---------------|-----------------|-0---------------|


-0---------------|-----------------|--------------7--|-----------------|
-----------------|-----------7-----|-----------7-----|-----------------|
-----4-----------|-----8-------8---|--------8--------|-----------------|
---4---4-4-------|---9--9---9------|-----9-----------|-----------------|
-2------2--2/4-6-|-----------------|-----------------|-----------------|
-----------------|-7------7--------|-7---------------|-----------------|


----------------|----------5-------|-----------------|----------7------|
-------5-------4|--------5---------|---------2-------|--------7--------|
-----6-------4--|------6-----------|-----4-------4---|------8----------|
---6-------4----|----5-------------|---4---4---4---4-|----9------------|
-4-------2------|------------------|-2---------------|-----------------|
----------------|-5----------------|-----------------|-7---------------|


---------0-------|---------0-------|---------0-------|---------0-------|
-------0-----0---|-------0-----0---|-------0-----0---|-------0-----0---|
-----1---------1-|-----2---------2-|-----1---------1-|-----2---------2-|
---2-------2-----|---4-------4-----|---2-------2-----|---4-------4-----|
-----------------|-----------------|-----------------|-----------------|
-0---------------|-0---------------|-0---------------|-0---------------|


-----------------|----------7------|
---------2-------|--------7--------|
-----4-------4---|------8----------|
---4---4---4---4-|----9------------|
-2---------------|-----------------|
-----------------|-7---------------|


---------0-------|---------0-------|---------0-------|---------0-------|
-------0-----0---|-------0-----0---|-------0-----0---|-------0-----0---|
-----1---------1-|-----2---------2-|-----4---------4-|-----2---------2-|
---2-------2-----|---4-------4-----|---6-------6-----|---4-------4-----|
-----------------|-----------------|-----------------|-----------------|
-0---------------|-0---------------|-0---------------|-0---------------|


Outro:							
-----------------|-----------------|-------------0---|-----------0-----|
----------0—-2s4-|-4------2—-4s5---|-------0---0---0-|---------0-------|
--------2-2—-2s4-|-----4--4--4-----|-----1---2-------|-------1---------|
------2----------|---4-------------|---2-------------|-----2-----------|
-2-0-------------|-2---------------|-----------------|---2-------------|
-----------------|-----------------|-0---------------|-0---------------|



feel free to send any comments to
stefan.o.schroeder@gmx.de

Comments