Europe - The Final Countdown Chords & Tabs

 

The Final Countdown Chords & Tabs

Europe Chords & Tabs

Version: 6 Type: Tab 0 ratings
1 star 2 stars 3 stars 4 stars 5 stars
comments

The Final Countdown Tab

   
Final Countdown by Europe
SOLO tabbed by Sindre Froyniboy
+++++++++++++++++++++++++++++++

   3:16                                      3:18
e|--10h14r10--10h14r10--10h14r10--10h14r10-----12h15r12--12h15r12--12h15r12--12h15r12------|
h|12--------12--------12--------12-----------14--------14--------14--------14--------------|
g|-----------------------------------------------------------------------------------------|
D|-----------------------------------------------------------------------------------------|
A|-----------------------------------------------------------------------------------------|
E|-----------------------------------------------------------------------------------------|

  3:20                                       3:22
e|--14h17r14--14h17r14--14h17r14--14h17r14-------------------------------------------------|
h|15--------15--------15--------15-------------12h15r12---12h15r12-------------------------|
g|-------------------------------------------12---------12---------------------------------|
D|-----------------------------------------------------------------------------------------|
A|-----------------------------------------------------------------------------------------|
E|-----------------------------------------------------------------------------------------|

  3:23                               3:25
e|-----------------------------------------------------------------------------------------|
h|-------12--------------------------12-12-12-11r12h11-------------------------------------|
g|-12-14----14-12-11-12-11-----------------------------14-12-12-11-------------------------|
D|-------------------------14-12-14--------------------------------14-12-------------------|
A|-----------------------------------------------------------------------------------------|
E|-----------------------------------------------------------------------------------------|
[ Tab from: http://www.guitartabs.cc/tabs/e/europe/the_final_countdown_tab_ver_6.html ]
  3:28
e|-----------------------------------------------------------------------------------------|
h|-----------------------------------------------------------------------------------------|
g|-16b--16----14----16-14---14-------------------------------------------------------------|
D|---------16----16-------16--16-15--15-14---14---14-------14------------------------------|
A|-----------------------------------------17---17---14-17---------------------------------|
E|-----------------------------------------------------------------------------------------|


      3:33                                      3:35
e|--10h14r10--10h14r10--10h14r10--10h14r10-----12h15r12--12h15r12--12h15r12--12h15r12------|
h|12--------12--------12--------12-----------14--------14--------14--------14--------------|
g|-----------------------------------------------------------------------------------------|
D|-----------------------------------------------------------------------------------------|
A|-----------------------------------------------------------------------------------------|
E|-----------------------------------------------------------------------------------------|

      3:37                                       3:39
e|--14h17r14--14h17r14--14h17r14--14h17r14-------------------------------------------------|
h|15--------15--------15--------15-------------12h15r12---12h15r12-------------------------|
g|-------------------------------------------12---------12---------------------------------|
D|-----------------------------------------------------------------------------------------|
A|-----------------------------------------------------------------------------------------|
E|-----------------------------------------------------------------------------------------|


    3:40                               3:41                               3:44     3:46
e|-----------------------------------------------------------------------------------------|
h|--------12---------------------------------------------------12--------------------------|
g|--12-14----14-12-11-12-11------------12-12-12-11r12h11-----------14-------11----13h16r13-|
D|--------------------------14-12-14---------------------12-14--------12-14----------------|
A|-----------------------------------------------------------------------------------------|
E|-----------------------------------------------------------------------------------------|



Notation Legend:
h=hammer
r=release (pull off)
s=slide
b=bend
bs=bend and slide (duh!)
3:29= 3 minutes and 29 seconds into song (duh!)

Oslo September 22nd 2002
Comments