Europe - The Final Countdown Chords & Tabs

 

The Final Countdown Chords & Tabs

Europe Chords & Tabs

Version: 5 Type: Tab 0 ratings
1 star 2 stars 3 stars 4 stars 5 stars
comments

The Final Countdown Tab

Standard Tuning

E-[-------14-]----[-------15-]----[-------17-]------------------------|
B-[-12h15----]----[-14h17----]----[-15h19----]------------------------|
G-[----------]x5--[----------]x5--[----------]x5----------------------|
D-[----------]----[----------]----[----------]------------------------|
A-[----------]----[----------]----[----------]------------------------|
E-[----------]----[----------]----[----------]------------------------|

E---------------7-----------------------------------------------------|
B-10b(12)--8h10--10-8-10p8\7---------8-8-8-8--7-----------------------|
G------------------------------9^^^^^-----------9--7-7--6-------------|
D----------------------------------------------------------9--7-------|
A---------------------------------------------------------------------|
E---------------------------------------------------------------------|

the solo
E---------------------------7------------------------------------------|
B-10b(12)----10br(12)----7----10p7--10p7---7---------------------------|
G---------9-----------9------------------9---9p7--9p7---7--9br(11)p7-9-|
D------------------------------------------------------9---------------|
A----------------------------------------------------------------------|
E----------------------------------------------------------------------|


E-[-------14-]----[-------15-]----[-------17-]------------------------|
B-[-12h15----]----[-14h17----]----[-15h19----]------------------------|
G-[----------]x5--[----------]x5--[----------]x5----------------------|
D-[----------]----[----------]----[----------]------------------------|
A-[----------]----[----------]----[----------]------------------------|
E-[----------]----[----------]----[----------]------------------------|
[ Tab from: http://www.guitartabs.cc/tabs/e/europe/the_final_countdown_tab_ver_5.html ]
E---------------7-----------------------------------------------------|
B-10b(12)--8h10--10-8-10p8\7--------8-8-8-8--7------10b(12)-10--------|
G------------------------------9^^^^----------9--7--------------------|
D---------------------------------------------------------------------|
A---------------------------------------------------------------------|
E---------------------------------------------------------------------|

E---------------------------------------------------------------------|
B-----------------------------12--------------------------------------|
G-7--9--9b(11)^^^----11bH(13)----(13)r11------------------------------|
D---------------------------------------------------------------------|
A---------------------------------------------------------------------|
E---------------------------------------------------------------------|
							END Solo

E-9p7-9----10p9--10-9-7----10p9-10-------7------7--------7------------|
B-------7---------------------------7\9-----10-----10-9-----10--------|
G---------------------------------------------------------------------|
D---------------------------------------------------------------------|
A---------------------------------------------------------------------|
E---------------------------------------------------------------------|

...and the other part:
E-------7-------7--9--7-------------10--9----9h10p9--7--9-------------|
B-9-10------10-----------10-9--7--------------------------------------|
G---------------------------------------------------------------------|
D---------------------------------------------------------------------|
A---------------------------------------------------------------------|
E---------------------------------------------------------------------|
Comments