Europe - The Final Countdown Chords & Tabs

 

The Final Countdown Chords & Tabs

Europe Chords & Tabs

Version: 2 Type: Tab 0 ratings
1 star 2 stars 3 stars 4 stars 5 stars
comments

The Final Countdown Tab

The beginning is kind of hard to play, but use a lot of distorition and play it fast. There are 
some other parts that shall be played pretty fast, but itīs just practise it and adventually 
you will be able to play it!

Any comments or questions can be send to "eraser49@hotmail.com"

~ = vibrato
10/13 = slide


E------10---14---10-----------10---14---10-------------12---15---12-----------12---15---12
B--12-------------------12------------------------14-----------------------14------------------
G------------------------------------------------------------------------------------------------
D------------------------------------------------------------------------------------------------
A------------------------------------------------------------------------------------------------
E------------------------------------------------------------------------------------------------

E-------13---17----13-----------13---17----13------------------------------------------------
B--15----------------------15------------------------------------------------------------------
G------------------------------------------------------------------------------------------------
D------------------------------------------------------------------------------------------------
A------------------------------------------------------------------------------------------------
E------------------------------------------------------------------------------------------------

E------------------7-----------------------------------------------------------------------------
B---8~---8---10---------10---8---7---10---8---7--------------8-8-8---7---------------------
G-----------------------------------------------------7---9-------------------9---7--7--6------
D-------------------------------------------------------------------------------------------9--7
A-----------------------------------------------------------------------------------------------
E------------------------------------------------------------------------------------------------
[ Tab from: http://www.guitartabs.cc/tabs/e/europe/the_final_countdown_tab_ver_2.html ]
E----7-7------------------------7---------------------------------------------------------------
B----------10--7----------7-----------10---7---------------------------------------------------
G-------------------10----------------------------10---9---7-------9---7-7---9-9-------------
D----------------------------------------------------------------9------------------------------
A------------------------------------------------------------------------------------------------
E------------------------------------------------------------------------------------------------

E------10---14---10-----------10---14---10-------------12---15---12-----------12---15---12
B--12-------------------12------------------------14-----------------------14-----------------
G------------------------------------------------------------------------------------------------
D------------------------------------------------------------------------------------------------
A------------------------------------------------------------------------------------------------
E------------------------------------------------------------------------------------------------

E-------13---17----13-----------13---17----13------------------------------------------------
B--15----------------------15-------------------------------------------------------------------
G------------------------------------------------------------------------------------------------
D------------------------------------------------------------------------------------------------
A------------------------------------------------------------------------------------------------
E------------------------------------------------------------------------------------------------

E------------------7-----------------------------------------------------------------------------
B---8~--8---10---------10---8---7---10---8---7--------------8-8-8---7----------------------
G-----------------------------------------------------7---9-------------------9---7------------
D-----------------------------------------------------------------------------------------------
A-----------------------------------------------------------------------------------------------
E------------------------------------------------------------------------------------------------

E------------------------------------------------------------------------------------------------
B---9/12---10-------------------------------12-------------------------------------------------
G-----------------------9----11---11/13------------13~----------------------------------------
D----------------12-----------------------------------------------------------------------------
A-----------------------------------------------------------------------------------------------
E------------------------------------------------------------------------------------------------

Comments