Europe - The Final Countdown Chords & Tabs

 

The Final Countdown Chords & Tabs

Europe Chords & Tabs

Version: 3 Type: Bass Tab

The Final Countdown Bass Tab

E U R O P E  --- T H E   F I N A L   C O U N T D O W N

I don't take credit for tabbing this out, I learned it from MrViking55 youTube video: 
http://www.youtube.com/watch?v=5PxP0KlAZ8E

After looking at the tabs already here, I just thought this was a better version.
All of the timings were taken from the video, and not the actual song. Enjoy!

intro 0:13
g|---------------4~------------|-----------4~-------------|    |--1~-2~--------|
D|---4~--2--0~-------2~-3~-4~--|*--2--0~-------2~-3~-4~--*|    |--------0~-----|
A|-----------------------------|*------------------------*| x3 |-----------4~--|
E|-----------------------------|--------------------------|    |---------------|
0:54
g|----------------------------------------------------------------------|
D|*------------------0-000-000-000-00----------------------------------*|
A|*----------------------------------2-222-222-222-22------------------*|
E|---2-222-222-222-22--------------------------------0-000-000-000-00---|
1:11
g|---------------------------------------------------------------------|
D|---------------------------------------------------------------------|
A|------------------------------/5-554-444-444-444-444-444-444-444-44--|
E|--2-222-224-444-445-4-2-0-0-00---------------------------------------|
1:19
g|--------------------------------|------------------------------------||
D|--------------------------------|------------------------------------||
A|--------------------------------|------------------------------------||
E|--2-222-222-222-222-222-222-222-|-222-222-222-222-222-222-222-222-22-||
________________________________________________________________________

verse 1 1:27
g|--------------------------------|-------------------------------------|
D|--------------------------------|-------------------------------------|
A|--------------------------------|-------------------2-222-0x2-222-0x--|
E|--2-222-0x2-222-0x2-222-0x2-222-|-0x2-222-0x2-222-0x------------------|
1:35
g|--------------------------------|-------------------------------------|
D|--------------------------------|-------------------------------------|
A|--------------------------------|-------------------0-000-000-000-00--|
E|--2-222-0x2-222-0x2-222-0x2-222-|-0x2-222-0x4-444-44------------------|
1:43
g|--------------------------------|-------------------------------------|
D|--0-000-000-000-002-222-222-222-|-22----------------------------------|
A|--------------------------------|---0-000-00--------------------------|
E|--------------------------------|-----------4-444-442-222-220-000-00--|
1:52
g|--------------------------------|-------------------------------------||
D|--0-000-000-000-00--------------|-------------22----22----2\----------||
A|------------------4-444-444-444-|-44----------------------------------||
E|--------------------------------|-------------------------------------||
_________________________________________________________________________
chorus 1 2:00
g|----------------------------------------------------------------------|
D|*------------------0-000-000-000-00----------------------------------*|
A|*----------------------------------2-222-222-222-22------------------*|
E|---2-222-222-222-22--------------------------------0-000-000-000-00---|
_________________________________________________________________________

verse 2 2:16
  same as verse 1
_________________________________________________________________________
[ Tab from: http://www.guitartabs.cc/tabs/e/europe/the_final_countdown_btab_ver_3.html ]
chorus 2 2:48
g|----------------------------------------------------------------------|
D|*------------------0-000-000-000-00----------------------------------*|
A|*----------------------------------2-222-222-222-22------------------*|
E|---2-222-222-222-22--------------------------------0-000-000-000-00---|
3:05
g|---------------------------------------------------------------------||
D|---------------------------------------------------------------------||
A|------------------------------/5-554-444-444-444-444-444-444-444-44--||
E|--2-222-224-444-445-4-2-0-0-00---------------------------------------||
3:13
g|-----------------------|
D|*---------------------*|
A|*---------------------*|
E|--2-2-0h2-0h2-0h2-0h2--|
_______________________________________________________________________
solo 3:17
g|--------------------------------------------------------------------|
D|----------------------------------0-000-000-000-00------------------|
A|--2-222-222-222-220-000-000-000-00----------------------------------|
E|--------------------------------------------------3-333-333-332-22--|
3:25
g|--------------------------------------------------------------------|
D|--------------------------------------------------------------------|
A|------------------0-000-000-000-002-222-222-222-22------------------|
E|--0-000-000-000-00--------------------------------2-222-222-222-22--|
3:33
g|--------------------------------------------------------------------|
D|----------------------------------0-000-000-000-00------------------|
A|--2-222-222-222-220-000-000-000-00----------------------------------|
E|--------------------------------------------------3-333-333-332-22--|
3:42
g|---------------------------------------------------------------------||
D|---------------------------------------------------------------------||
A|------------------0-000-000-000-002-222-222-222-224-444-444-444-44---||
E|--0-000-000-000-00------------------------------------------------2--||
________________________________________________________________________
interlude 3:50
g|------------------------|----------------------|------------------------------||
D|-------------------0-2--|-----------------0-2--|------------------------------||
A|--------4-5----2--------|------4-5----2--------|----------------------/5-4~~--||
E|--(2)-------------------|--2-------------------|--2--2/4--4-5-4-2-0-0---------||
__________________________________________________________________________

chorus 3 4:14
g|----------------------------------------------------------------------|
D|*------------------0-000-000-000-00----------------------------------*|
A|*----------------------------------2-222-222-222-22------------------*|
E|---2-222-222-222-22--------------------------------0-000-000-000-00---|
4:31
g|---------------------------------------------------------------------|
D|---------------------------------------------------------------------|
A|------------------------------/5-554-444-444-444-444-4---4---4---2---|
E|--2-222-224-444-445-4-2-0-0-00---------------------------------------|
4:38
g|----------------------------------------------------------------------|
D|*------------------0-000-000-000-00----------------------------------*|
A|*----------------------------------2-222-222-222-22------------------*|
E|---2-222-222-222-22--------------------------------0-000-000-000-00---|
4:55
g|---------------------------------------------------------------------|
D|---------------------------------------------------------------------|
A|------------------------------/5-554-444-444-444-444-4---4---4---2---|
E|--2-222-224-444-445-4-2-0-0-00---------------------------------------|

recording repeats and fades out, but can end on:
g|--------|
D|--------|
A|--------|
E|--2~~~--|


/ -- slide up
\ -- slide down
h -- hammer on
~ -- let note ring out
x -- dead note
(n) -- previous note still playing