Europe - Cherokee Chords & Tabs

 

Cherokee Chords & Tabs

Europe Chords & Tabs

Version: 1 Type: Bass Tab 0 ratings
1 star 2 stars 3 stars 4 stars 5 stars
comments

Cherokee Bass Tab

Band - Europe
Song - Cherokee

intro/chorus:
g----------------------------------------|
d----------------------------------------|
a-77-55-----33--77-55--7-3---5--7--------|
e--------33----------------3-------------|

Verse:
g---------------------------------------------------------------|
d---------------------------------------------------------------|
a-----------------2-2-2-2-2-2-2-------------------2-----5--3----|
e-0-0-0-0-0-0-0-3---------------3-0-0-0-0-0-0-0-3---------------|

g-----------------------------------|
d-----------------------------------|
a-5b---------------------5-----7----|
e----000--222--333--555-------------|
     pm   pm   pm   pm
[ Tab from: http://www.guitartabs.cc/tabs/e/europe/cherokee_btab.html ]
g---------------------------------------------------------------|
d---------------------------------------------------------------|
a-----------------2-2-2-2-2-2-2-------------------2-----5--3----|
e-0-0-0-0-0-0-0-3---------------3-0-0-0-0-0-0-0-3---------------|

g------------------------------------------------|
d------------------------------------------------| 
a-5b---------------------------------------------| 
e----000--222--333--555--777--888--101010--------| 
     pm..........................................

solo:
g------------------|
d------------------|
a-----222-333------| 
e-000---------3322-|

Bridge:
g--------------------------------------------------------------|
d--------------------------------------------------------------|
a-3-333-333-333-332-222-222-222-223-333-333-333-335-555--------|
e--------------------------------------------------------------|


g-----------------------------|
d-----4-5---------------------|
a-5-7-----0----2----3----5----|
e-----------------------------|

End:
g--------------|
d--------------|
a-22-33--55-77-|
e--------------|
Comments