Eugene - Crossroads Chords & Tabs

 

Crossroads Chords & Tabs

Eugene Chords & Tabs

Version: 1 Type: Tab 0 ratings
1 star 2 stars 3 stars 4 stars 5 stars
comments

Crossroads Tab

"CROSSROADS"

From the ear of Frederick to you!!!
Let me know how this works for you.
freddyjrob@yahoo.com

Classical Guitar Piece from the movie Crossroads.
When he's sitting in his room and playing that classical acoustic guitar.
This is the best I could do from remembering how it sounded and 
not actually having it here to listen to.



E -------------5-8-12\8----0---------|-------------0-4-7\4-0----------|
B -----------5----------10---1-------|---------0-3-----------3\0------|
G -------2-5-------------------2-----|-------1-------------------1----|
D -----2-------------------------2---|---0/2-----------------------2-0|
A -0/3-----------------------------3-|-2------------------------------|
E -----------------------------------|--------------------------------|


E -------------0-3-5-3-0-----------|-----------------10-13\10--------------|
B -----------2-----------2---------|--------------10----------10-----------|
G -------0-2---------------2-0-----|---------7-10----------------10-7------|
D -----2-----------------------2---|-------7--------------------------7---0|
A -0/4---------------------------4-|-0-5/8------------------------------8--|
E ---------------------------------|---------------------------------------|
[ Tab from: http://www.guitartabs.cc/tabs/e/eugene/crossroads_tab.html ]
                                                    
E ---------------4-7\4-------------|---------------0---5---8----12----16|
B ---------0---6-------6---0-------|-----------1-----1---5---10----13---|
G -------1---7-----------7---1-----|-------2-----2----------------------|
D ---0/3-----------------------3-0-|---2-----2--------------------------|
A -2-------------------------------|-0---3------------------------------|
E ---------------------------------|------------------------------------|


E ---------------------------------|-----------0-------0-----5-3----------|
B ---------------------------------|---------1---1---3---3-------6-5-3----|
G -------------------2\0-----------|-------2-------4-------5-----------5-4|
D -----2-----0/3---------3-2\0-----|-----2--------------------------------|
A -0/3---3-2-----2-3-----------3-2-|-0-3----------------------------------|
E ---------------------------------|--------------------------------------|


E -----0-------0-----5-3-----------|---------5-----------7-5---------|
B ---1---1---3---3-------6-5-3-----|-----5-----8-6-5---------8-6-5---|
G -2-------4-------5-----------5-4-|---6---6---------6/7-----------7-|
D ---------------------------------|-7-------------------------------|
A ---------------------------------|---------------------------------|
E ---------------------------------|---------------------------------|


E -------------------5-3-----------|---------1-0---------1---4~~~|
B -----3---6-5-3---------6-5-3-----|-----1-------3-1---1---3-5~~~|
G ---4---4-------4/5-----------5-4-|---2---2---------1-------4~~~|
D -5-------------------------------|-3---------------------------|
A ---------------------------------|-----------------------------|
E ---------------------------------|-----------------------------|


E -12-10-7-----------------------------------------5~~~~~~~~~~~~~~~|
B ---------9-6---9-6------------------9~~~~~~~~~~--5~~~~~~~~~~~~~~~|
G -------------7-----7----------------7~~~~~~~~~~--6~~~~~~~~~~~~~~~|
D ---------------------9-6-------------------------5~~~~~~~~~~~~~~~|
A -------------------------8-5--------7~~~~~~~~~~--7~~~~~~~~~~~~~~~|
E -----------------------------7-4-0~~~~~~~~~~~~~5~~~~~~~~~~~~~~~~~|


Comments