Ether - Disavowed Chords & Tabs

 

Disavowed Chords & Tabs

Ether Chords & Tabs

Version: 1 Type: Tab 0 ratings
1 star 2 stars 3 stars 4 stars 5 stars
comments

Disavowed Tab

   
-----------------------------------------------------------------------------
			     DISAVOWED - Ether
-----------------------------------------------------------------------------
Tabbed by: Freighter
Email: jbabies@westnet.net.au

Tuning: D A D G B E

Intro (x 2)
e|----------------------------------------------------------------------------------------------------------------------------|
B|----------------------------------------------------------------------------------------------------------------------------|
G|---------7--------------5---------------7-------------10-------------7---------------5--------------------------------------|
D|---------7--------------5---------------7-------------10-------------7---------------5-------0----------0--3---5--6--5--3---|
A|---------5--------------3---------------5--------------8--------------5---------------3-------0----------0--3---5--6--5--3--|
D|-0--0----------0--0-----------0--0-----------0--0-----------0--0----------0--0------------0----------0--3---5--6--5--3------|

Verse 1
(x2)
e|---------------------------------------------------------------------------|
B|---------------------------------------------------------------------------|
G|---------------------------------------5-5-5-------------------------------|
D|--0-0-0---------3-3-----3-3-3-----5-5-5------------------------------------|
A|--0-0-0---------3-3-----3-3-3-----3-3-3------------------------------------|
D|--0-0-0---------3-3-----3-3-3------------------0----3----5----6----5----3--|

(x2)
e|-------------------------------------------------------------------------|
B|-------------------------------------------------------------------------|
G|--------------------------------------------5-5-5------------------------|
D|--0-0-0--------3----3-3-----3-3-3-----5-5-5---------5----5-5----5-6-6----|
A|--0-0-0--------3----3-3-----3-3-3-----3-3-3---------5----5-5----5-6-6----|
D|--0-0-0--------3----3-3-----3-3-3---------------------5----5-5----5-6-6--|

Chorus
(x2)
e|----------------------------------------------------------------------------------|
B|----------------------------------------------------------------------------------|
G|-3-3-3-3-3-3-3-3--5-5-5-5-5-5-5-5-------------------------------------------------|
D|-3-3-3-3-3-3-3-3--5-5-5-5-5-5-5-5-------------------------------------------------|
A|-1-1-1-1-1-1-1-1--3-3-3-3-3-3-3-3------------------------------------------3-3-3--|
D|----------------------------------------------0-0-0002-2-2---223-3-3---33--------|

e|---------------------------------------------------------------------------------------------------------------|
B|---------------------------------------------------------------------------------------------------------------|
G|-3-3-3----------------5---5-5----5-5-5---------------------------------------3-3-3-3-3-3-3-3--5-5-5-5-5-5-5-5--|
D|-3-3-3----------------5---5-5----5-5-5-------3----3-3---3-5--0-----------3-3-3-3-3-3-3-3--5-5-5-5-5-5-5-5------|
A|-1-1-1----------------3---3-3----3-3-3-------3----3-3---3-5--0-----------1-1-1-1-1-1-1-1--3-3-3-3-3-3-3-3------|
D|---------------------------------------------------3----3-3---3-5--0-------------------------------------------|

(x2)
e|----------------------------------------------------------------------------------------------------------------------------|
B|----------------------------------------------------------------------------------------------------------------------------|
G|---------7--------------5---------------7-------------10-------------7---------------5--------------------------------------|
D|---------7--------------5---------------7-------------10-------------7---------------5-------0----------0--3---5--6--5--3---|
A|---------5--------------3---------------5--------------8--------------5---------------3-------0----------0--3---5--6--5--3--|
D|-0--0----------0--0-----------0--0-----------0--0-----------0--0----------0--0------------0----------0--3---5--6--5--3------|

Verse 2
(x2)
e|---------------------------------------------------------------------------|
B|---------------------------------------------------------------------------|
G|---------------------------------------5-5-5-------------------------------|
D|--0-0-0---------3-3-----3-3-3-----5-5-5------------------------------------|
A|--0-0-0---------3-3-----3-3-3-----3-3-3------------------------------------|
D|--0-0-0---------3-3-----3-3-3------------------0----3----5----6----5----3--|

(x2)
e|-------------------------------------------------------------------------|
B|-------------------------------------------------------------------------|
G|--------------------------------------------5-5-5------------------------|
D|--0-0-0--------3----3-3-----3-3-3-----5-5-5---------5----5-5----5-6-6----|
A|--0-0-0--------3----3-3-----3-3-3-----3-3-3---------5----5-5----5-6-6----|
D|--0-0-0--------3----3-3-----3-3-3---------------------5----5-5----5-6-6--|

Chorus
(x2)
e|----------------------------------------------------------------------------------|
B|----------------------------------------------------------------------------------|
G|-3-3-3-3-3-3-3-3--5-5-5-5-5-5-5-5-------------------------------------------------|
D|-3-3-3-3-3-3-3-3--5-5-5-5-5-5-5-5-------------------------------------------------|
A|-1-1-1-1-1-1-1-1--3-3-3-3-3-3-3-3------------------------------------------3-3-3--|
D|----------------------------------------------0-0-0002-2-2---223-3-3---33--------|
[ Tab from: http://www.guitartabs.cc/tabs/e/ether/disavowed_tab.html ]
e|---------------------------------------------------------------------------------------------------------------|
B|---------------------------------------------------------------------------------------------------------------|
G|-3-3-3----------------5---5-5----5-5-5---------------------------------------3-3-3-3-3-3-3-3--5-5-5-5-5-5-5-5--|
D|-3-3-3----------------5---5-5----5-5-5-------3----3-3---3-5--0-----------3-3-3-3-3-3-3-3--5-5-5-5-5-5-5-5------|
A|-1-1-1----------------3---3-3----3-3-3-------3----3-3---3-5--0-----------1-1-1-1-1-1-1-1--3-3-3-3-3-3-3-3------|
D|---------------------------------------------------3----3-3---3-5--0-------------------------------------------|

(x2)
e|----------------------------------------------------------------------------------------------------------------------------|
B|----------------------------------------------------------------------------------------------------------------------------|
G|---------7--------------5---------------7-------------10-------------7---------------5--------------------------------------|
D|---------7--------------5---------------7-------------10-------------7---------------5-------0----------0--3---5--6--5--3---|
A|---------5--------------3---------------5--------------8--------------5---------------3-------0----------0--3---5--6--5--3--|
D|-0--0----------0--0-----------0--0-----------0--0-----------0--0----------0--0------------0----------0--3---5--6--5--3------|

Bridge
(x2)
e|------------------------------------------------------------------------------------|
B|------------------------------------------------------------------------------------|
G|-3-3-3---------------5----5-5---5-5-5-----------------------------------------------|
D|-3-3-3---------------5----5-5---5-5-5-----------------------------------------------|
A|-1-1-1---------------3----3-3---3-3-3--------------------------------------3-3-3-3--|
D|----------------------------------------------0-0-0-0--2-2-2-2--3-3-3-3-------------|

e|---------------------------------------------------------------------------------------------------------------|
B|---------------------------------------------------------------------------------------------------------------|
G|-3-3-3----------------5---5-5----5-5-5---------------------------------------3-3-3-3-3-3-3-3--5-5-5-5-5-5-5-5--|
D|-3-3-3----------------5---5-5----5-5-5-------3----3-3---3-5--0-----------3-3-3-3-3-3-3-3--5-5-5-5-5-5-5-5------|
A|-1-1-1----------------3---3-3----3-3-3-------3----3-3---3-5--0-----------1-1-1-1-1-1-1-1--3-3-3-3-3-3-3-3------|
D|---------------------------------------------------3----3-3---3-5--0-------------------------------------------|

e|-----------------------------------------------|
B|-----------------------------------------------|
G|-0-0-0-0-0-0-0-0-0-0-0-0-0-0-0-0---------------|
D|-0-0-0-0-0-0-0-0-0-0-0-0-0-0-0-0---------------|
A|-0-0-0-0-0-0-0-0-0-0-0-0-0-0-0-0---------------|
D|-----------------------------------------------|

e|----------------------------------------------------------------------------------------------------------------------------|
B|----------------------------------------------------------------------------------------------------------------------------|
G|---------7--------------5---------------7-------------10-------------7---------------5--------------------------------------|
D|---------7--------------5---------------7-------------10-------------7---------------5-------0----------0--3---5--6--5--3---|
A|---------5--------------3---------------5--------------8--------------5---------------3-------0----------0--3---5--6--5--3--|
D|-0--0----------0--0-----------0--0-----------0--0-----------0--0----------0--0------------0----------0--3---5--6--5--3------|

Chorus
(x4)
e|----------------------------------------------------------------------------------|
B|----------------------------------------------------------------------------------|
G|-3-3-3-3-3-3-3-3--5-5-5-5-5-5-5-5-------------------------------------------------|
D|-3-3-3-3-3-3-3-3--5-5-5-5-5-5-5-5-------------------------------------------------|
A|-1-1-1-1-1-1-1-1--3-3-3-3-3-3-3-3------------------------------------------3-3-3--|
D|----------------------------------------------0-0-0002-2-2---223-3-3---33--------|

e|---------------------------------------------------------------------------------------------------------------|
B|---------------------------------------------------------------------------------------------------------------|
G|-3-3-3----------------5---5-5----5-5-5---------------------------------------3-3-3-3-3-3-3-3--5-5-5-5-5-5-5-5--|
D|-3-3-3----------------5---5-5----5-5-5-------3----3-3---3-5--0-----------3-3-3-3-3-3-3-3--5-5-5-5-5-5-5-5------|
A|-1-1-1----------------3---3-3----3-3-3-------3----3-3---3-5--0-----------1-1-1-1-1-1-1-1--3-3-3-3-3-3-3-3------|
D|---------------------------------------------------3----3-3---3-5--0-------------------------------------------|

e|----------------------------------------------------------------------------------------------------------------------------|
B|----------------------------------------------------------------------------------------------------------------------------|
G|---------7--------------5---------------7-------------10-------------7---------------5--------------------------------------|
D|---------7--------------5---------------7-------------10-------------7---------------5-------0----------0--3---5--6--5--3---|
A|---------5--------------3---------------5--------------8--------------5---------------3-------0----------0--3---5--6--5--3--|
D|-0--0----------0--0-----------0--0-----------0--0-----------0--0----------0--0------------0----------0--3---5--6--5--3------|

e|--------------------------------------------------------------------------------------------------------------------------------|
B|--------------------------------------------------------------------------------------------------------------------------------|
G|---------7--------------5---------------7-------------10-------------7---------------5------------------------------------------|
D|---------7--------------5---------------7-------------10-------------7---------------5-------0----------0--3---5--6--5--3-3-3---|
A|---------5--------------3---------------5--------------8--------------5---------------3-------0----------0--3---5--6--5--3-3-3--|
D|-0--0----------0--0-----------0--0-----------0--0-----------0--0----------0--0------------0----------0--3---5--6--5--3-3-3------|

| /  slide up					| ~  vibrato
| \  slide down					| +  harmonic
| h  hammer-on					| x  Mute note
| p  pull-off
===============================================================================
Comments