Eternal Abyss - Eternal Abyss Chords & Tabs

 

Eternal Abyss Chords & Tabs

Eternal Abyss Chords & Tabs

Version: 1 Type: Bass Tab 0 ratings
1 star 2 stars 3 stars 4 stars 5 stars
comments

Eternal Abyss Bass Tab

   
#----------------------------------PLEASE NOTE---------------------------------#
#This file is the author's own work and represents their interpretation of the #
#song. You may only use this file for private study, scholarship, or research. #
#------------------------------------------------------------------------------##

                            ETERNAL ABYSS (Bassline)
                          As recorded by Eternal Abyss

Words and Music by Willy
Arranged by Willy
Transcribed by Willy

Gtr I (E A D G) - 'Willy's fuckin' Bass'

 4/4
  Gtr I
  E S S S S E S S S S E S S S S E S S S S E S S S S E S S S S E S S E   E E E
|-----------------------9---9---9-9---9-----7---7---7-7---7---------------------|
|---9---9---9-9---9---7---7---7-----7---7-5---5---5-----5---5---7---7\----5-----|
|-7---7---7-----7---7-----------------------------------------5---5-----3---3---|
|-------------------------------------------------------------------------------|


  E S S S S E S S S S E S S
|-----------------------9---|
|---9---9---9-9---9---7---7-|
|-7---7---7-----7---7-------|
|---------------------------|


  S S E S S S S E S S S S E   S S S S E S S E  E E E
|-9---9-9---9-----7---7---7-|-7---7------------------|
|---7-----7---7-5---5---5---|---5---5---7---7\---5---|
|---------------------------|---------5---5----3---3-|
|---------------------------|------------------------|


  E S S S S E S S S S E S S
|-----------------------9---|
|---9---9---9-9---9---7---7-|
|-7---7---7-----7---7-------|
|---------------------------|


  S S E S S S S E S S S S E   S S S S E S S E  E E E
|-9---9-9---9-----7---7---7-|-7---7------------------|
|---7-----7---7-5---5---5---|---5---5---7---7\---5---|
|---------------------------|---------5---5----3---3-|
|---------------------------|------------------------|


  E S S S S E S S S S E S S
|-----------------------9---|
|---9---9---9-9---9---7---7-|
|-7---7---7-----7---7-------|
|---------------------------|


  S S E S S S S E S S S S E   S S S S E S S E E E E
|-9---9-9---9-----7---7---7-|-7---7-----5---5---7---|
|---7-----7---7-5---5---5---|---5---5-3---3---5---5-|
|---------------------------|-----------------------|
|---------------------------|-----------------------|


  E S S S S E S S S S  E  S  S    S  S  E  S  S  S  S  E  S  S  S  S  E
|---9---9---9-9---9------12----|-12----12-12----12----------------------|
|-7---7---7-----7---7-10----10-|----10-------10----10----12----12----12-|
|------------------------------|----------------------10----10----10----|
|------------------------------|----------------------------------------|


   S  S  S  S E  S S  E  E  E  E
|--------------------------------|
|-12----12------10---10----12----|
|----10----10-8----8----10----10-|
|--------------------------------|


                                                                          T
  E S S S S E S S S S E S S   S S E S S S S E S S S S E   S S S S E E E E H
|---9---9---9-9---9-----7---|-7---7-7---7-----5---5---5-|-5---5-----7---7------|
|-7---7---7-----7---7-5---5-|---5-----5---5-3---3---3---|---3---3-5---5---5\---|
|---------------------------|---------------------------|----------------------|
|---------------------------|---------------------------|----------------------|


  E E E E E E E E E E E E E E E E E E E E E E E E
|---9-9---9-9---7-7---7-7---5-5---5-5---7-7---7-7----|
|-7-----7-----5-----5-----3-----3-----5-----5--------|
|----------------------------------------------------|
|----------------------------------------------------|


  E E E E E E E E   E E E E E E E E   E E E E E E E E
|---9-9---9-9---7-|-7---7-7---5-5---|-5-5---7-7---7-7----|
|-7-----7-----5---|---5-----3-----3-|-----5-----5--------|
|-----------------|-----------------|--------------------|
|-----------------|-----------------|--------------------|


  E E E E E E E E   E E E E E E E E   E E E E E E E E
|---9-9---9-9---7-|-7---7-7---5-5---|-5-5---7-7---7-7----|
|-7-----7-----5---|---5-----3-----3-|-----5-----5--------|
|-----------------|-----------------|--------------------|
|-----------------|-----------------|--------------------|


  E E E E E E E E   E E E E E E E E   E E E E E E E E
|---9-9---9-9---7-|-7---7-7---5-5---|-5-5---7-7---7-7----|
|-7-----7-----5---|---5-----3-----3-|-----5-----5--------|
|-----------------|-----------------|--------------------|
|-----------------|-----------------|--------------------|


  E E E E E E  E  E    E  E  E  E  E  E  E  E    E  E E  E E  E  E  E
|---9-9---9-9----12-|-12----12-12-------------|--------------------------|
|-7-----7-----10----|----10----------12-12----|-12-12---10------12-------|
|-------------------|-------------10-------10-|-------8----8S10----10----|
|-------------------|-------------------------|--------------------------|


  E E E E E E E E   E E E E E E E E   E E E E E E E E
|---9-9---9-9---7-|-7---7-7---5-5---|-5-5---7-7---7-7----|
|-7-----7-----5---|---5-----3-----3-|-----5-----5--------|
|-----------------|-----------------|--------------------|
|-----------------|-----------------|--------------------|


  E E E E E E E E E E E E E E E E E E E E E E E E
|----------------------------------------------------|
|---9-9---9-9---7-7---7-7---5-5---5-5---7-7---7-7----|
|-7-----7-----5-----5-----3-----3-----5-----5--------|
|----------------------------------------------------|

[ Tab from: http://www.guitartabs.cc/tabs/e/eternal_abyss/eternal_abyss_btab.html ]
  E E E E E E E E   E E E E E E E E   E E E E E E E E
|-----------------|-----------------|--------------------|
|---9-9---9-9---7-|-7---7-7---5-5---|-5-5---7-7---7-7----|
|-7-----7-----5---|---5-----3-----3-|-----5-----5--------|
|-----------------|-----------------|--------------------|


  E S S S S E S S S S E S S
|-----------------------9---|
|---9---9---9-9---9---7---7-|
|-7---7---7-----7---7-------|
|---------------------------|


  S S E S S S S E S S S S E   S S S S E S S E  E E E
|-9---9-9---9-----7---7---7-|-7---7------------------|
|---7-----7---7-5---5---5---|---5---5---7---7\---5---|
|---------------------------|---------5---5----3---3-|
|---------------------------|------------------------|


  E S S S S E S S S S E S S
|-----------------------9---|
|---9---9---9-9---9---7---7-|
|-7---7---7-----7---7-------|
|---------------------------|


  S S E S S S S E S S S S E   S S S S E S S E E E E
|-9---9-9---9-----7---7---7-|-7---7-----5---5---7---|
|---7-----7---7-5---5---5---|---5---5-3---3---5---5-|
|---------------------------|-----------------------|
|---------------------------|-----------------------|


  E S S S S E S S S S  E  S  S    S  S  E  S  S  S  S  E  S  S  S  S  E
|---9---9---9-9---9------12----|-12----12-12----12----------------------|
|-7---7---7-----7---7-10----10-|----10-------10----10----12----12----12-|
|------------------------------|----------------------10----10----10----|
|------------------------------|----------------------------------------|


   S  S  S  S E  S S  E  E  E  E
|--------------------------------|
|-12----12------10---10----12----|
|----10----10-8----8----10----10-|
|--------------------------------|


  E S S S S E S S S S E S S
|---9---9---9-9---9-----7---|
|-7---7---7-----7---7-5---5-|
|---------------------------|
|---------------------------|


                                              T
  S S E S S S S E S S S S E   S S S S E E E E H
|-7---7-7---7-----5---5---5-|-5---5-----7---7-------|
|---5-----5---5-3---3---3---|---3---3-5---5---5\----|
|---------------------------|-----------------------|
|---------------------------|-----------------------|


  E E E E E E E E   E E E E E E E E   E E E E E E E E
|---9-9---9-9---7-|-7---7-7---5-5---|-5-5---7-7---7-7----|
|-7-----7-----5---|---5-----3-----3-|-----5-----5--------|
|-----------------|-----------------|--------------------|
|-----------------|-----------------|--------------------|


  E E E E E E E E   E E E E E E E E   E E E E E E E E
|---9-9---9-9---7-|-7---7-7---5-5---|-5-5---7-7---7-7----|
|-7-----7-----5---|---5-----3-----3-|-----5-----5--------|
|-----------------|-----------------|--------------------|
|-----------------|-----------------|--------------------|


  E E E E E E  E  E    E  E  E  E  E  E  E  E    E  E E  E E  E  E  E
|---9-9---9-9----12-|-12----12-12-------------|--------------------------|
|-7-----7-----10----|----10----------12-12----|-12-12---10------12-------|
|-------------------|-------------10-------10-|-------8----8S10----10----|
|-------------------|-------------------------|--------------------------|


  E E E E E E E E   E E E E E E E E   E E E E E E E E
|---9-9---9-9---7-|-7---7-7---5-5---|-5-5---7-7---7-7----|
|-7-----7-----5---|---5-----3-----3-|-----5-----5--------|
|-----------------|-----------------|--------------------|
|-----------------|-----------------|--------------------|


  E E E E E E E E   E E E E E E E E   E E E E E E E E
|-----------------|-----------------|--------------------|
|---9-9---9-9---7-|-7---7-7---5-5---|-5-5---7-7---7-7----|
|-7-----7-----5---|---5-----3-----3-|-----5-----5--------|
|-----------------|-----------------|--------------------|


  E E E E E E E E   E E E E E E E E   E E E E E E E E
|-----------------|-----------------|--------------------|
|---9-9---9-9---7-|-7---7-7---5-5---|-5-5---7-7---7-7----|
|-7-----7-----5---|---5-----3-----3-|-----5-----5--------|
|-----------------|-----------------|--------------------|


  E E E E E E E E   E E E E E E E E   E E E E E E E E
|-----------------|-----------------|--------------------|
|---9-9---9-9---7-|-7---7-7---5-5---|-5-5---7-7---7-7----|
|-7-----7-----5---|---5-----3-----3-|-----5-----5--------|
|-----------------|-----------------|--------------------|


Duration Legend
---------------
W - whole; H - half; Q - quarter; E - 8th; S - 16th; T - 32nd; X - 64th; a - acciaccatura
+ - note tied to previous; . - note dotted; .. - note double dotted
Uncapitalized letters represent notes that are staccato (1/2 duration)
Irregular groupings are notated above the duration line
Duration letters will always appear directly above the note/fret number it represents the
duration for.  Duration letters with no fret number below them represent rests.  Multi-
bar rests are notated in the form Wxn, where n is the number of bars to rest for.  Low
melody durations appear below the staff

Tablature Legend
----------------
 h   - hammer-on
 p   - pull-off
 b   - bend
 pb  - pre-bend
 r   - bend release (if no number after the r, then release immediately)
 /\  - slide into or out of (from/to "nowhere")
 s   - legato slide
 S   - shift slide
  - natural harmonic
[n]  - artificial harmonic
n(n) - tapped harmonic
 ~   - vibrato
 tr  - trill
 T   - tap
 TP  - trem. picking
 PM  - palm muting
\n/  - tremolo bar dip; n = amount to dip
 \n  - tremolo bar down
 n/  - tremolo bar up
/n\  - tremolo bar inverted dip
 =   - hold bend; also acts as connecting device for hammers/pulls
   - volume swell (louder/softer)
 x   - on rhythm slash represents muted slash
 o   - on rhythm slash represents single note slash

Misc Legend
-----------
 |  - bar
||  - double bar
||o - repeat start
o|| - repeat end
*|  - double bar (ending)
 :  - bar (freetime)
 $  - Segno
 &  - Coda
Tempo markers -  = BPM(8/16=s8/s16), where s8 = swing 8ths, s16 = swing 16ths


***************************************************************************************
* Generated using Power Tab Editor by Brad Larsen - http://powertab.guitarnetwork.org *
***************************************************************************************
Comments