Eterna - Working Man Chords & Tabs

 

Working Man Chords & Tabs

Eterna Chords & Tabs

Version: 1 Type: Tab 0 ratings
1 star 2 stars 3 stars 4 stars 5 stars
comments

Working Man Tab

                                  Working Man                                   


                                                                          Eterna



                                                           
D#||--------------------------|---------------------------|
A#||------------7-8--7--------|------------7-8--7--10--8--|
F#||----------9---------9--8--|--9-------9----------------|
C#||--------9-----------------|--------9------------------|
G#||--7-----------------------|---------------------------|
D#||--------------------------|---------------------------|


                                                        
-----------------------7--|-----7-----7----------------|
------------7-8--7--------|--5-----4-----5--5--4-5-7-4-|
--8-------9---------9-----|----------------------------|
--------9-----------------|----------------------------|
--------------------------|----------------------------|
--------------------------|----------------------------|


                                                     
-------------------------|--------------------------|
--5--------------------7-|--8--7------------------7-|
-------4-------------9---|--------9--8--9-------9---|
----------5--------9-----|--------------------9-----|
-------------7-----------|--------------------------|
-------------------------|--------------------------|


                                                                          
---------------------------------------|--------------12------12-----12--|
--8--7-----12--11h12h11h12h11-------12-|--13--12----------10------8------|
--------9------------------------14----|----------14---------------------|
------------------------------14-------|---------------------------------|
---------------------------------------|---------------------------------|
---------------------------------------|---------------------------------|


                                                                               
----------------------------|----------------------------10-15h10----------10-|
--7--7--7-8-10-7-8----------|-------------------------12----------------12----|
----------------------7-----|----------------------12----------------12-------|
-------------------------9--|-------------------12----------------12----------|
----------------------------|--10------10-14h10-------------------------------|
----------------------------|-------------------------------------------------|


                                                                   
--14h10----------10-15h12----------10-14h10-----------------------|
--------------12----------------12----------12--------------------|
-----------12----------------12----------------12-----------------|
--------12----------------12----------------------12--------------|
-----------------------------------------------------14-10~-------|
------------------------------------------------------------------|


                                                                 
-------------------|------------------------|-------------------|
-------------------|------------------------|-------------------|
-------------------|------------------------|-------------------|
--9----------------|----------9-9-9-9-9--9--|--9----------------|
--7----------------|----------7-7-7-7-7--7--|--6----------------|
--0----------------|------------------------|-------------------|


                                                                      
----------------------------|-------------------|--3-----------------|
----------------------------|-------------------|--3-----------------|
----------------------------|--4----------------|--0-----------------|
----------------------------|--4----------------|--0--------2--------|
--3-3-3-3-3--3--3--3--3--3--|--2----------------|--2--------0--------|
----------------------------|-------------------|--3-----------------|


                                                                  
---------------------|-----------------------|-------------------|
-------------8/---7--|--5--------------------|-------------------|
-------------7/---6--|--4--------5-5---7-7---|-------------------|
-------------5/---4--|--2--------5-5---7-7---|--9----------------|
--2------------------|-----------3-3---5-5---|--7----------------|
--0------------------|-----------------------|--0----------------|


                                                                                
------------------------|-------------------|----------------------------------|
------------------------|-------------------|----------------------------------|
------------------------|-------------------|----------------------------------|
----------9-9-9-9-9--9--|--9----------------|----------------------------------|
----------7-7-7-7-7--7--|--6----------------|--3-3-3-3-3-3-3-3-3-3-3-3-3-3-3-3-|
------------------------|-------------------|----------------------------------|


                                                                             
-------------------|----------------------------------|---------------------|
-------------------|----------------------------------|-------------8/---7--|
--4----------------|----------------------------------|-------------7/---6--|
--4----------------|----------------------------------|-------------5/---4--|
--2----------------|----------------------------------|--2------------------|
-------------------|--3-3-3-3-3-3-3-3-5-5-5-5-5-5-5-5-|--0------------------|


                                                     
---------------------|------------------------------|
--5------------------|------------------------------|
--4--------9----5----|--7-------------7-------------|
--2--------9----5----|--7-------------7-------------|
-----------7----3----|--5--5-5-5-5-5-----5-5-5-5-5--|
---------------------|------------------------------|


                                                              
------------------------------|------------------------------|
------------------------------|------------------------------|
----------------7-------------|----------------5-------------|
----------------7-------------|----------------5-------------|
--5--5-5-5-5-5-----5-5-5-5-5--|--3--3-3-3-3-3-----3-3-3-3-3--|
------------------------------|------------------------------|


                                                              
------------------------------|------------------------------|
------------------------------|------------------------------|
--4-------------5-------------|----------------7-------------|
--4-------------5-------------|----------------7-------------|
--2--2-2-2-2-2--3--3-3-3-3-3--|--5--5-5-5-5-5-----5-5-5-5-5--|
------------------------------|------------------------------|


                                                              
------------------------------|------------------------------|
------------------------------|------------------------------|
----------------7-------------|--5-------------5-------------|
----------------7-------------|--5-------------5-------------|
--5--5-5-5-5-5-----5-5-5-5-5--|--3--3-3-3-3-3-----3-3-3-3-3--|
------------------------------|------------------------------|


                                                                                
--------------------|-------------------|------------------|-------------------|
--------------------|-------------------|------------------|-------------------|
--4--------5--------|--9----------------|------------------|--7----------------|
--4--------5--------|--9----------------|------------------|--7----------------|
--2--------3--------|--7----------------|------------------|--5----------------|
--------------------|--0----------------|------------------|-------------------|


                                                                              
------------------|-------------------|------------------|-------------------|
------------------|-------------------|------------------|-------------------|
------------------|--5----------------|------------------|--4----------------|
------------------|--5----------------|------------------|--4----------------|
------------------|--3----------------|------------------|--2----------------|
------------------|-------------------|------------------|-------------------|


                                                                              
------------------|-------------------|------------------|-------------------|
------------------|-------------------|------------------|-------------------|
------------------|--9----------------|------------------|--7----------------|
------------------|--9----------------|------------------|--7----------------|
------------------|--7----------------|------------------|--5----------------|
------------------|-------------------|------------------|-------------------|


                                                                              
------------------|-------------------|------------------|-------------------|
------------------|-------------------|------------------|-------------------|
------------------|--5----------------|------------------|--4----------------|
------------------|--5----------------|------------------|--4----------------|
------------------|--3----------------|------------------|--2----------------|
------------------|-------------------|------------------|-------------------|


                                                                   
------------------|----------------------|------------------------|
------------------|----------------------|------------------------|
------------------|----------------------|------------------------|
------------------|----------------------|--4----2----------------|
------------------|------------3----2----|------------2--2--2--2--|
------------------|--3----2--------------|------------0--0--0--0--|


                                                                        
--------------------------|-------------------|------------------------|
--------------------------|-------------------|------------------------|
--------------5-5---7-7---|-------------------|------------------------|
--------------5-5---7-7---|--9----------------|----------9-9-9-9-9--9--|
--2--2--2--2--3-3---5-5---|--7----------------|----------7-7-7-7-7--7--|
--0--0--0--0--------------|--0----------------|------------------------|


                                                                           
-------------------|----------------------------------|-------------------|
-------------------|----------------------------------|-------------------|
-------------------|----------------------------------|--4----------------|
--9----------------|----------------------------------|--4----------------|
--6----------------|--3-3-3-3-3-3-3-3-3-3-3-3-3-3-3-3-|--2----------------|
-------------------|----------------------------------|-------------------|


                                                         
----------------------------------|---------------------|
----------------------------------|-------------8/---7--|
----------------------------------|-------------7/---6--|
----------------------------------|-------------5/---4--|
----------------------------------|--2------------------|
--3-3-3-3-3-3-3-3-5-5-5-5-5-5-5-5-|--0------------------|


                                                           
-----------------------|----------------------------------|
--5--------------------|----------------------------------|
--4--------5-5---7-7---|----------------------------------|
--2--------5-5---7-7---|----------------------------------|
-----------3-3---5-5---|--7-7-7-7-7-7-7-7-7-7-7-7-7-7-7-7-|
-----------------------|----------------------------------|


                                                                      
----------------------------------|----------------------------------|
----------------------------------|----------------------------------|
----------------------------------|----------------------------------|
----------------------------------|----------------------------------|
--7-7-7-7-7-7-7-7-7-7-7-7-7-7-7-7-|--6-6-6-6-6-6-6-6-6-6-6-6-6-6-6-6-|
----------------------------------|----------------------------------|


                                                                      
----------------------------------|----------------------------------|
----------------------------------|----------------------------------|
----------------------------------|----------------------------------|
----------------------------------|----------------------------------|
--3-3-3-3-3-3-3-3-3-3-3-3-3-3-3-3-|--2-2-2-2-2-2-2-2-2-2-2-2-2-2-2-2-|
----------------------------------|----------------------------------|


                                                                               
----------------------------------|---------------------|---------------------|
----------------------------------|-------------8/---7--|--5------------------|
----------------------------------|-------------7/---6--|--4--------9----5----|
----------------------------------|-------------5/---4--|--2--------9----5----|
----------------------------------|--2------------------|-----------7----3----|
--3-3-3-3-3-3-3-3-5-5-5-5-5-5-5-5-|--0------------------|---------------------|


                                                              
------------------------------|------------------------------|
------------------------------|------------------------------|
--7-------------7-------------|----------------7-------------|
--7-------------7-------------|----------------7-------------|
--5--5-5-5-5-5-----5-5-5-5-5--|--5--5-5-5-5-5-----5-5-5-5-5--|
------------------------------|------------------------------|


                                                              
------------------------------|------------------------------|
------------------------------|------------------------------|
----------------5-------------|--4-------------5-------------|
----------------5-------------|--4-------------5-------------|
--3--3-3-3-3-3-----3-3-3-3-3--|--2--2-2-2-2-2--3--3-3-3-3-3--|
------------------------------|------------------------------|


                                                              
------------------------------|------------------------------|
------------------------------|------------------------------|
----------------7-------------|----------------7-------------|
----------------7-------------|----------------7-------------|
--5--5-5-5-5-5-----5-5-5-5-5--|--5--5-5-5-5-5-----5-5-5-5-5--|
------------------------------|------------------------------|


                                                                        
------------------------------|--------------------|-------------------|
------------------------------|--------------------|-------------------|
--5-------------5-------------|--4--------5--------|--9----------------|
--5-------------5-------------|--4--------5--------|--9----------------|
--3--3-3-3-3-3-----3-3-3-3-3--|--2--------3--------|--7----------------|
------------------------------|--------------------|--0----------------|


                                                                              
------------------|-------------------|------------------|-------------------|
------------------|-------------------|------------------|-------------------|
------------------|--7----------------|------------------|--5----------------|
------------------|--7----------------|------------------|--5----------------|
------------------|--5----------------|------------------|--3----------------|
------------------|-------------------|------------------|-------------------|


                                                                              
------------------|-------------------|------------------|-------------------|
------------------|-------------------|------------------|-------------------|
------------------|--4----------------|------------------|--9----------------|
------------------|--4----------------|------------------|--9----------------|
------------------|--2----------------|------------------|--7----------------|
------------------|-------------------|------------------|-------------------|


                                                                              
------------------|-------------------|------------------|-------------------|
------------------|-------------------|------------------|-------------------|
------------------|--7----------------|------------------|--5----------------|
------------------|--7----------------|------------------|--5----------------|
------------------|--5----------------|------------------|--3----------------|
------------------|-------------------|------------------|-------------------|


                                                          
------------------|-------------------|------------------|
------------------|-------------------|------------------|
------------------|--4----------------|------------------|
------------------|--4----------------|------------------|
------------------|--2----------------|------------------|
------------------|-------------------|------------------|


                                                                           
----------------------|------------------------|--------------------------|
----------------------|------------------------|--------------------------|
----------------------|------------------------|--------------5-5---7-7---|
----------------------|--4----2----------------|--------------5-5---7-7---|
------------3----2----|------------2--2--2--2--|--2--2--2--2--3-3---5-5---|
--3----2--------------|------------0--0--0--0--|--0--0--0--0--------------|


                                                                          
------------------7--12h-7----------|--15---14-12---12-11h-12h-14--------|
---------------8------------8-------|------------------------------12----|
------------9------------------9----|------------------------------------|
---------9--------------------------|------------------------------------|
--7--10-----------------------------|------------------------------------|
------------------------------------|------------------------------------|


                                                                        
------------------7--12h-7----------|--8h-5-----------5--5h-2----------|
---------------8------------8-------|--------7-----7-----------4-------|
------------9------------------9----|-----------8-----------------5----|
---------9--------------------------|----------------------------------|
--7--10-----------------------------|----------------------------------|
------------------------------------|----------------------------------|


                                                                          
------------------7--12h-7----------|--15---14-12---12-11h-12h-14--------|
---------------8------------8-------|------------------------------12----|
------------9------------------9----|------------------------------------|
---------9--------------------------|------------------------------------|
--7--10-----------------------------|------------------------------------|
------------------------------------|------------------------------------|


                                                                            
------------------7--12h-7----------|--5h-2-----------2--8h-5-----------5--|
---------------8------------8-------|--------4-----4-----------7-----7-----|
------------9------------------9----|-----------5-----------------8--------|
---------9--------------------------|--------------------------------------|
--7--10-----------------------------|--------------------------------------|
------------------------------------|--------------------------------------|

[ Tab from: http://www.guitartabs.cc/tabs/e/eterna/working_man_tab.html ]
                                                 
--11h-8--------------8--14h-11--------------11--|
---------10------10-------------13------13------|
-------------11---------------------14----------|
------------------------------------------------|
------------------------------------------------|
------------------------------------------------|


                                      Solo                   
--17h-14--------------14--19--------|------------------|--19~---------------|
----------16------16----------------|------------------|--------------------|
--------------17--------------------|------------------|--------------------|
------------------------------------|------------------|--------------------|
------------------------------------|------------------|--------------------|
------------------------------------|------------------|--------------------|


                                                                  
--19r-19--20r-----------|--19~-----17-19-20-19-15-17-19-17-14-15-|
------------------------|----------------------------------------|
------------------------|----------------------------------------|
------------------------|----------------------------------------|
------------------------|----------------------------------------|
------------------------|----------------------------------------|


                                                 
--17-15-15-17-19-17-14-15-17-15-12-14-15h14h12--|
------------------------------------------------|
------------------------------------------------|
------------------------------------------------|
------------------------------------------------|
------------------------------------------------|


                                                                             
-------------------11-12-14h12h11-------|-----------------------------------|
--15b-----10-12-13----------------13h12h|--10-------------------------------|
----------------------------------------|-----8h9h11h9h8--------------------|
----------------------------------------|----------------10h9h7-------------|
----------------------------------------|-----------------------10-9-7-6~---|
----------------------------------------|-----------------------------------|


                                           
--7-7-7-7-8-8-8-8-11-11-11-11-12-12-12-12-|
--7-7-7-7-8-8-8-8-11-11-11-11-12-12-12-12-|
------------------------------------------|
------------------------------------------|
------------------------------------------|
------------------------------------------|


                                                
--14-14-14-14-15-15-15-15-14-14-14-14-12--8-10-|
--14-14-14-14-15-15-15-15-14-14-14-14-12-------|
-----------------------------------------------|
-----------------------------------------------|
-----------------------------------------------|
-----------------------------------------------|


                                               
--15t11-10-8-15t11-10-8-----------------------|
------------------------15t11-10-8-15t11-10-8-|
----------------------------------------------|
----------------------------------------------|
----------------------------------------------|
----------------------------------------------|


                                       
--------------------------------------|
--11t10-8-7-11t10-8-7-11t10-7--8------|
----------------------------------7-8-|
--------------------------------------|
--------------------------------------|
--------------------------------------|


                                                                         
------------------------------------------|-----------------------------|
------------------------------------------|-----------------------------|
--12t11-8-7-12t11-8-7---------------------|-----------------------------|
----------------------12t10-8-7-12t10-8-7-|--12t8-7-5-------------------|
------------------------------------------|-----------6-5-3-------------|
------------------------------------------|------------------3/-5/-3~---|


                                           
------------------------------------------|
------------------------------------------|
--------------------3-5-7h5h3-------------|
--------------3-5-7-----------7h5h3/5-7-8-|
--------3-5-6-----------------------------|
--3-5-6-----------------------------------|


                                                                       
----------------------------------------9-10-11-|----------------11-8-|
--------------------------------9-10-11---------|---------------------|
--5-7-8h7h5--------------7-8-10-----------------|---------------------|
------------8---7-7-8-10------------------------|---------------------|
------------------------------------------------|---------------------|
------------------------------------------------|---------------------|


                                                                           
--10--11--8-10-11--8-10-11----9--|--10h9h6--------------------------------|
---------------------------------|---------10h8h6-------------------------|
---------------------------------|----------------9h7h6-------------------|
---------------------------------|----------------------8h7h5-------------|
---------------------------------|----------------------------8h7h5/4-----|
---------------------------------|----------------------------------------|


                                                                
---------------------|--------------------|--------------------|
---------------------|--------------------|--------------------|
---------------------|--------------------|--------------------|
---------------------|--------------------|--------------------|
--------5----7----8--|------------7----5--|--12~---------------|
---------------------|--------------------|--------------------|


                                                                  
--18h17h15-------------------------------------------------------|
-----------18h17h15/14-15-17h15h14-------------------------------|
-----------------------------------15h14h12----------------12-14-|
--------------------------------------------15h14-12-14-15-------|
-----------------------------------------------------------------|
-----------------------------------------------------------------|


                                                                  
-----------------------------------------------------------------|
-----------------------------------------------------------------|
--15h14h12----------------12-14-15h14h12----------------12-14-15-|
-----------15h14-12-14-15----------------15-14-12-14-15----------|
-----------------------------------------------------------------|
-----------------------------------------------------------------|


                                                                
-----------15-17-18-----------17-15-|--18h17h15h-17~-----------|
--14-17-18--------------------------|--------------------------|
------------------------------------|--------------------------|
------------------------------------|--------------------------|
------------------------------------|--------------------------|
------------------------------------|--------------------------|


                                                                           
-------------------------|-------------------------|--------x-------------|
-------------------------|-------------------------|--------x-------------|
--9----9--9--9--9--------|--9----9--9--9--8--------|--9---9-x-9--8--------|
--9----9--9--9--9--------|--9----9--9--9--8--------|--9---9-x-9--8--------|
--7----7--7--7--7--------|--7----7--7--7--6--------|--7---7-x-7--6--------|
-------------------------|-------------------------|--------x-------------|


                                                             
------------------------------|-----------------------------|
--10----10--10--10--10--------|--10----10--10--10--9--------|
--9-----9---9---9---9---------|--9-----9---9---9---8--------|
--7-----7---7---7---7---------|--7-----7---7---7---6--------|
------------------------------|-----------------------------|
------------------------------|-----------------------------|


                                                                              
----------x--------------|-------------------------|-------------------------|
--10---10-x-10--9--------|-------------------------|-------------------------|
--9----9--x-9---8--------|--9----9--9--9--9--------|--9----9--9--9--8--------|
--7----7--x-7---6--------|--9----9--9--9--9--------|--9----9--9--9--8--------|
----------x--------------|--7----7--7--7--7--------|--7----7--7--7--6--------|
----------x--------------|-------------------------|-------------------------|


                                                      
--------x-------------|------------------------------|
--------x-------------|--10----10--10--10--10--------|
--9---9-x-9--8--------|--9-----9---9---9---9---------|
--9---9-x-9--8--------|--7-----7---7---7---7---------|
--7---7-x-7--6--------|------------------------------|
--------x-------------|------------------------------|


                                                        
-----------------------------|----------x--------------|
--10----10--10--10--9--------|--10---10-x-10--9--------|
--9-----9---9---9---8--------|--9----9--x-9---8--------|
--7-----7---7---7---6--------|--7----7--x-7---6--------|
-----------------------------|----------x--------------|
-----------------------------|----------x--------------|


                                                                             
-------------------------|-------------------------|------------------------|
-------------------------|-------------------------|------------------------|
-------------------------|----------------8--------|---------------8--------|
-------------------------|----------------8--------|---------------8--------|
-------------------------|----------------6--------|---------------6--------|
--0--0-0-0-0-0--0--------|--0--0-0-0-0-0-----------|--0--0-0--0-0-----------|


                                                                             
-------------------------|-------------------------|------------------------|
-------------------------|----------------9--------|---------------9--------|
-------------------------|----------------8--------|---------------8--------|
-------------------------|----------------6--------|---------------6--------|
--0--0-0-0-0-0--0--------|--0--0-0-0-0-0-----------|--0--0-0--0-0-----------|
-------------------------|-------------------------|------------------------|


                                                          
-------------------------------|-------------------------|
-------------------------------|-------------------------|
-------------------------------|-------------------------|
-------------------------------|-------------------------|
--7--7-9-10-9-7--5--5-7-9-7-5--|--3--3-5-7-5-3--2~-------|
-------------------------------|-------------------------|


                                                                         
----------------------|------------------------|------------------------|
----------------------|------------------------|------------------------|
----------------------|------------------------|--------------9----5----|
----------------------|--4----2----------------|--------------9----5----|
------------3----2----|------------2--2--2--2--|--2--2--2--2--7----3----|
--3----2--------------|------------0--0--0--0--|--0--0--0--0------------|


                                                              
------------------------------|------------------------------|
------------------------------|------------------------------|
--7-------------7-------------|----------------7-------------|
--7-------------7-------------|----------------7-------------|
--5--5-5-5-5-5-----5-5-5-5-5--|--5--5-5-5-5-5-----5-5-5-5-5--|
------------------------------|------------------------------|


                                                              
------------------------------|------------------------------|
------------------------------|------------------------------|
----------------5-------------|--4-------------5-------------|
----------------5-------------|--4-------------5-------------|
--3--3-3-3-3-3-----3-3-3-3-3--|--2--2-2-2-2-2--3--3-3-3-3-3--|
------------------------------|------------------------------|


                                                              
------------------------------|------------------------------|
------------------------------|------------------------------|
----------------7-------------|----------------7-------------|
----------------7-------------|----------------7-------------|
--5--5-5-5-5-5-----5-5-5-5-5--|--5--5-5-5-5-5-----5-5-5-5-5--|
------------------------------|------------------------------|


                                                                        
------------------------------|--------------------|-------------------|
------------------------------|--------------------|-------------------|
--5-------------5-------------|--4--------5--------|-------------------|
--5-------------5-------------|--4--------5--------|-------------------|
--3--3-3-3-3-3-----3-3-3-3-3--|--2--------3--------|--7----------------|
------------------------------|--------------------|-------------------|


                                                                              
------------------|-------------------|------------------|-------------------|
------------------|-------------------|------------------|-------------------|
------------------|-------------------|------------------|-------------------|
------------------|-------------------|------------------|-------------------|
------------------|--5----------------|------------------|--3----------------|
------------------|-------------------|------------------|-------------------|


                                                                              
------------------|-------------------|------------------|-------------------|
------------------|-------------------|------------------|-------------------|
------------------|-------------------|------------------|-------------------|
------------------|-------------------|------------------|-------------------|
------------------|--2----------------|------------------|--7----------------|
------------------|-------------------|------------------|-------------------|


                                                                              
------------------|-------------------|------------------|-------------------|
------------------|-------------------|------------------|-------------------|
------------------|-------------------|------------------|-------------------|
------------------|-------------------|------------------|-------------------|
------------------|--5----------------|------------------|--3----------------|
------------------|-------------------|------------------|-------------------|


                                                                              
------------------|-------------------|------------------|-------------------|
------------------|-------------------|------------------|-------------------|
------------------|-------------------|------------------|-------------------|
------------------|-------------------|------------------|-------------------|
------------------|--2----------------|------------------|--9----------------|
------------------|-------------------|------------------|-------------------|


                                                                              
------------------|-------------------|------------------|-------------------|
------------------|-------------------|------------------|-------------------|
------------------|-------------------|------------------|-------------------|
------------------|-------------------|------------------|-------------------|
------------------|--7----------------|------------------|--5----------------|
------------------|-------------------|------------------|-------------------|


                                                                              
------------------|-------------------|------------------|-------------------|
------------------|-------------------|------------------|-------------------|
------------------|-------------------|------------------|-------------------|
------------------|-------------------|------------------|-------------------|
------------------|--4----------------|------------------|--9----------------|
------------------|-------------------|------------------|-------------------|


                                                                              
------------------|-------------------|------------------|-------------------|
------------------|-------------------|------------------|-------------------|
------------------|-------------------|------------------|-------------------|
------------------|-------------------|------------------|-------------------|
------------------|--7----------------|------------------|--5----------------|
------------------|-------------------|------------------|-------------------|


                                                                  
------------------|-------------------|--------------------------|
------------------|-------------------|------------7-8--7--------|
------------------|-------------------|----------9---------9--8--|
------------------|-------------------|--------9-----------------|
------------------|--4----------------|--7-----------------------|
------------------|-------------------|--------------------------|


                                                       
---------------------------|-----------------------7--|
------------7-8--7--10--8--|------------7-8--7--------|
--9-------9----------------|--8-------9---------9-----|
--------9------------------|--------9-----------------|
---------------------------|--------------------------|
---------------------------|--------------------------|


                                                       
-----7-----7----------------|-------------------------|
--5-----4-----5--5--4-5-7-4-|--5--------------------7-|
----------------------------|-------4-------------9---|
----------------------------|----------5--------9-----|
----------------------------|-------------7-----------|
----------------------------|-------------------------|


                                                                   
--------------------------|---------------------------------------|
--8--7------------------7-|--8--7-----12--11h12h11h12h11-------12-|
--------9--8--9-------9---|--------9------------------------14----|
--------------------9-----|------------------------------14-------|
--------------------------|---------------------------------------|
--------------------------|---------------------------------------|


                                                               
--------------12------12-----12--|----------------------------|
--13--12----------10------8------|--7--7--7-8-10-7-8----------|
----------14---------------------|----------------------7-----|
---------------------------------|-------------------------9--|
---------------------------------|----------------------------|
---------------------------------|----------------------------|


                                                  
----------------------------10-15h10----------10-|
-------------------------12----------------12----|
----------------------12----------------12-------|
-------------------12----------------12----------|
--10------10-14h10-------------------------------|
-------------------------------------------------|


                                                                           
--14h10----------10-15h12----------10-14h10-----------------------|------||
--------------12----------------12----------12--------------------|------||
-----------12----------------12----------------12-----------------|------||
--------12----------------12----------------------12--------------|------||
-----------------------------------------------------14-10~-------|------||
------------------------------------------------------------------|------||



Comments