Esteban - I Cant Help Falling In Love With You Chords & Tabs

 

I Cant Help Falling In Love With You Chords & Tabs

Esteban Chords & Tabs

Version: 1 Type: Tab

I Cant Help Falling In Love With You Tab

This is Another Genius song Written by Esteban!  
I play it constantly lol.  Any questions Email Me.
Note: Please remember I tabbed this lol...
so it might be hard to read and maybe missing some 
notes because I'm lazy heh...So listen to the song 
and play it slowly...(VEERY SLOW SONG)! Also Some 
parts of the song I just made up because I don't
have the CD or the MP3.  So I hope you like it!

Esteban - I Can't Help Falling in Love With You
                 Tabbed By:
	   Acoustical-Emotion.com  (Esteban Mege Fansite)
			 
			 
-----Main Verse-----
 
|---------3--1h3p1-----------------0-----1--1--1--1---|
|--1------0------------1-----1/3---------1--1--1--1---|
|--0------0------------0-----0-----------2--2--2--2---|
|--2-------------------2-----2-----------3--3--3--3---| 
|--3-------------------3-----3------------------------| 
|---------3-------------------------------------------| 
                                                      
|--0-----0h1p0----------------------------------------|
|--1--------------3----------------------1-------0----|
|--0--------------0----0-------0000------2---2---0----|
|-----------------0---0-0----------------3--3-3--0----|
|--3---------------------2---------------3------------|
|-----------------3-------3----------------------3----| 
                                                      
|------------------------------0----0--------0h1------| 
|------0h1oh1---1------1/---3-------1---1-1--------3--|
|-0-0--0h20h2---2------2------------0----0---------0--| 
|--0---0h20h2---2------2---------------------------0--|
|---------------0------0------------3-----------------|
|--------------------------------------------------3--|  
                                                      
|-------------------1p0-------------------------------| 
|-----------1h3p1-----------0-----1----------1--------| 
|--0-0-------------------2--------0----0-0---2--2-2---| 
|---0-----------------------------2-----2----3---3----| 
|---------------------------------3----------3--------| 
|-----------------------------------------------------|  
                                                      
|--------------| 
|------1-------| 
|------0-------| 
|------2-------|
|------3-------|
|--------------| 

----Alternate Verse (Part Two)-----
                                                      
|--0---0-0-0-3/---7/----5-----5------5----------------| 
|--0--------------------------2---2-2-----------------| 
|--1--------------------------2----2------------------| 
|-----------------------------------------------------| 
|-----------------------------0-----------------------| 
|--0--------------------------------------------------|  
[ Tab from: http://www.guitartabs.cc/tabs/e/esteban/i_cant_help_falling_in_love_with_you_tab.html ]
                                     TREMELO!!!!                 
|--0---0-0-0-3/---7/----5-----------0-0-0---0-0-0-----| 
|--0--------------------------------------------------| 
|--1--------------------------------------2-----------| 
|-----------------------------------------------------| 
|--------------------------------0--------------------| 
|--0--------------------------------------------------|  
                                                      
|----0-0-0---0-0-0----0-0-0---0-0-0---0-0-0-----------| 
|--2----------------2---------------2-----------------| 
|----------2----------------2-------------------------| 
|-----------------------------------------------------| 
|-----------------------------------------------------| 
|-----------------------------------------------------|  
                                                      
|--0---0-0-0-3/---7/----5-----5------5----------------| 
|--0--------------------------2---2-2-----------------| 
|--1--------------------------2----2------------------| 
|-----------------------------------------------------| 
|-----------------------------0-----------------------| 
|--0--------------------------------------------------|  
                                                      
|--0----------2---------| 
|--2--2-2-----1--1-1----| 
|--2---2------2---2-----| 
|-------------0---------| 
|--0--------------------| 
|-----------------------|

 ----Last Verse----

			 TREMELO!!!
|--------------3-3-3----3-3-3---3-3-3---3-3-3---3-3-3-|
|--1--------------------------0---------------0-------|
|--0--0-0-------------0---------------0---------------|
|--2---2----------------------------------------------| 
|--3--------------------------------------------------| 
|------------3----------------------------------------|

|----3-3-3---3-3-3---3p0----------------0----1--1--1--| 
|----------0-------------------1----1/3------1--1--1--| 
|--0---------------0-----------2----2--------2--2--2--| 
|------------------------------0----0--------3--3--3--| 
|------------------------------3----3-----------------| 
|-----------------------------------------------------|  

|--1----0---------000h1p0-----------------------------| 
|--1----1--1---1--------------3---------3-------------| 
|--2----0----0----------------0--0---0---0------------| 
|--3--------------------------0----0------0-----------| 
|-------3----------------------------------2----------| 
|-----------------------------3-------------3---------| 

---------------------------|
--------------1-------0----|
----0000------2---2---0----|
--------------3--3-3--0----|
--------------3------------|
----------------------3----| 
                                                      
|------------------------------0----0--------0h1------| 
|------0h1oh1---1------1/---3-------1---1-1--------3--|
|-0-0--0h20h2---2------2------------0----0---------0--| 
|--0---0h20h2---2------2---------------------------0--|
|---------------0------0------------3-----------------|
|--------------------------------------------------3--|

|-------------------1p0-------------------------------| 
|-----------1h3p1-----------0-----1----------1--------| 
|--0-0-------------------2--------0----0-0---2--2-2---| 
|---0-----------------------------2-----2----3---3----| 
|---------------------------------3----------3--------| 
|-----------------------------------------------------|  
                                                      
|--------------| 
|------1-------| 
|------0-------| 
|------2-------|
|------3-------|
|--------------|   

|-----------------------------------------------------| 
|-----1-1-1---1-1-1---1-1-1---1-1-1---1-1-1-----1-----| 
|-------------------2---------------2-----------0-----| 
|-----------3---------------3-------------------2-----| 
|---3-------------------------------------------3-----| 
|-----------------------------------------------------|  


Any questions or comments?  Let me know!  Even something
just nice and cool to say lol.......just e-mail me =D...
(Are you a Fan of Esteban? Check out Acoustical-emotion.com
for more cool tabs like this!!!)

                         Love Everyone,
                           Sean Andresen
Acoustical_emotion@yahoo.com

Official Site - http://estebanmusic.com