Essex Green - Saturday Chords & Tabs

 

Saturday Chords & Tabs

Essex Green Chords & Tabs

Version: 1 Type: Tab

Saturday Tab

   
-------------------------------------------------------------------------------
			     Saturday (intro) - The Essex Green
-------------------------------------------------------------------------------
Tabbed by: Erin
 

[ Tab from: http://www.guitartabs.cc/tabs/e/essex_green/saturday_tab.html ]
e|-----------------------------------------------------------------------|
B|-----------------------------------------------------------------3-3-1-|
G|-0-0-0-0-0-0-0-p2-0-------------0-0-0-0-0-0-0-p2-0------------0-0------|
D|----3---3---3------3-2-0-----------3---3---3------3-2-0----------------|
A|-------------------------3-0-3--------------------------3-0-3----------|
E|-----------------------------------------------------------------------|

e|-----------------------------------------------------------------------|
B|1-3-1------------------------------------------------------------------|
G|------3-2-0------------------------------------------------------------|
D|------------3-0-3------------------------------------------------------|
A|-----------------------------------------------------------------------|
E|-----------------------------------------------------------------------|



| /  slide up
| \  slide down
| h  hammer-on
| p  pull-off
| ~  vibrato
| +  harmonic
| x  Mute note