Essex Green - Mrs Bean Chords & Tabs

 

Mrs Bean Chords & Tabs

Essex Green Chords & Tabs

Version: 1 Type: Tab 0 ratings
1 star 2 stars 3 stars 4 stars 5 stars
comments

Mrs Bean Tab

   
                    "Mrs. Bean"
                 the Essex Green
        From The Album "Everything Is Green"



[Intro]

Flute:
     A        F#m       C#m      D
G-|-----6-4---------------------------4----------|
D-|--7------7-6--7-4--7-6----4-6-7--4---7-6-7----|



[Verse]

D-|-----7--7-----4--4--4s11--11-x-11-----------12-x-------------|
A-|-----7--7--0--4--4--4s11--11-x-11---11s12---12-x-12-14-12----|
E-|-9s--5--5--0--2--2--2s9---9--x-9----9-s10---10-x-10-10-10----|

 A          F#m        C#m         D
Magnificent wonder-mrs Bean, your daughter is under her chair...



[Bridge]
[ Tab from: http://www.guitartabs.cc/tabs/e/essex_green/mrs_bean_tab.html ]
 A        F#m       C#m       D
Like they know your name la la la
e-|--------------------------------------------------------|
B-|--------------5---7-5-------2---3-2--2------------------|
G-|------------6---6---------2---2--------4-2-2------------|
D-|--0-2-4--s7-------------4---------------------4-2--4-2--|
A-|--------------------------------------------------------|
E-|--------------------------------------------------------|
           A           F#m
oh when it feels like under outside
e-|--------------------------------------------------------|
B-|--------------------------------------------5-7---------|
G-|----------------------------------------4-6-------------|
D-|-----------------------------4-6-7p6--7-----------------|
A-|--------------------------------------------------------|
E-|--------------------------------------------------------|


[Chorus]

B        E    A  C#m       F#m
Aaaahhhhh...
B        E    A  C#m       F#m
Aaaahhhhh...



[Ending]
     G                                F#m
e-|---------------------------------------|
B-|--------8-------8-------8-------8--7---|
G-|--10b12---10b12---10b12---10b12--------|
D-|---------------------------------------|
A-|---------------------------------------|
E-|---------------------------------------|
Comments