Eskobar - Tell Me Im Wrong Chords & Tabs

 

Tell Me Im Wrong Chords & Tabs

Eskobar Chords & Tabs

Version: 1 Type: Tab 0 ratings
1 star 2 stars 3 stars 4 stars 5 stars
comments

Tell Me Im Wrong Tab

   
 Tell Me I'm Wrong
 (Bellqvist/Zäll/Birming)
 By Eskobar
 From the album "There's Only Now"
 Tabbed by Halfdan Baadsvik
 halfdan@eskobar.nu
 A handful thanks to Fredrik Jönson for the
 chords, basic riff and parts of the bridge.
 
    Intro
    D
 e|-----------------|
 B|-----------------|
 G|---6---4---6---4-|
 D|-----------------|
 A|-5---5---5---5---|
 E|-----------------|

    D           F#m    A     D           F#m   A
 e|--------------------------------------------------|
 B|--------------------------------------------------|
 G|---6-4---6-4---6--4---6-4---6-4---6-4---6-4---6-4-|
 D|-------------4------------------------4-----------|
 A|-5-----5------------7-----5-----5-----------7-----|
 E|--------------------------------------------------|

    D               F#m
 e|-------------------|
 B|-------------------|
 G|---6---4---6---4---|
 D|-----------------4-|
 A|-5---5---5---5-----|
 E|-------------------|

 F#m     
  It's not easy being friends
 D
  It's even harder being lovers
 A
  The flag is waving It's the end
 D
  I build a shelter under my covers
          F#m                         D
  Where I sit I think of you, my only love

 Play the main riff over the chorus.

  D  
  Tell me I'm wrong
                F#m         A
  But I feel so free and so small at the same time 
  D 
  Tell me I'm wrong
                F#m         A
  But I feel so free and so small at the same time
 D                      
  And so small at the same time

 In this verse, a guitar fill is played each time 
 the chords change. This is the fill when the chords
 change to:

    F#m
 e|-------------|
 B|-------------|
 G|-------6---4-|
 D|-4-4-4---4---|
 A|-------------|
 E|-------------|

    D
 e|-------------|
 B|-------------|
 G|-------6---4-|
 D|-------------|
 A|-5-5-5---5---|
 E|-------------|

    A
 e|-------------|
 B|-------------|
 G|-------6---4-|
 D|-------------|
 A|-7-7-7---7---|
 E|-------------|
[ Tab from: http://www.guitartabs.cc/tabs/e/eskobar/tell_me_im_wrong_tab.html ]
 F#m
  It's not even making sense
 D
  The ground we walk or sky above us
 A
  So how to understand the end
 D
  I build a shelter under my covers
          F#m                         D
  Where I sit I think of you, my only love

  D
  Tell me I'm Wrong 
                F#m         A
  But I feel so free and so small at the same time
  D
  Tell me I'm wrong
                F#m         A
  But I feel so free and so small at the same time
  D
  Tell me I'm wrong
                F#m         A
  But I feel so free and so small at the same time
  
    Bridge
    A                       Ab
 e|-----------------------------------------|
 B|-10-10-10-10-10-10-10-10-9-9-9-9-9-9-9-9-|
 G|-9--9--9--9--9--9--9--9--8-8-8-8-8-8-8-8-|
 D|-7--7--7--7--7--7--7--7--6-6-6-6-6-6-6-6-|
 A|-----------------------------------------|
 E|-----------------------------------------|

    C#
 e|-------------------------------------------------|
 B|-14-14-14-14-14-14-14-14-14-14-14-14-14-14-14-14-|
 G|-13-13-13-13-13-13-13-13-13-13-13-13-13-13-13-13-|
 D|-11-11-11-11-11-11-11-11-11-11-11-11-11-11-11-11-|
 A|-------------------------------------------------|
 E|-------------------------------------------------|
   The tabs above are played twice. 

    F#m     D          F#m                         D
               Where I sit I think of you, my only love
 e|----------------------------------------------------|
 B|----------------------------------------------------|
 G|-------4-7~--------------------------------4----7-~-|
 D|-4-6-7--------------4-----6-------7-----------------|
 A|----------------------------------------------------|
 E|----------------------------------------------------|
   
  D  
  Tell me I'm wrong
                F#m         A
  But I feel so free and so small at the same time
  D  
  Tell me I'm wrong 
                F#m         A
  But I feel so free and so small at the same time
  D       
  Tell me I'm wrong
                F#m         A
  But I feel so free and so small at the same time
  D
  Tell me I'm wrong
                F#m         A
  But I feel so free and so small at the same time
 D F#m        A 
       And so small at the same time
 D F#m        A
       And so small at the same time
 
 Fade
Comments