Eskobar - So Chords & Tabs

 

So Chords & Tabs

Eskobar Chords & Tabs

Version: 1 Type: Tab 0 ratings
1 star 2 stars 3 stars 4 stars 5 stars
comments

So Tab

   
 So
 By Eskobar
 (Bellqvist/Zäll/Birming)
 From the album "'Til We're Dead"
 Tabbed by Halfdan Baadsvik
 Note: I didn't come up with the whole
       tab on my own. Parts are edited
       pieces I've learned (Thanks to 
       Frederik Jönson).
 
 Am7   - 002213
 G     - 320033
 Dsus2 - X00230

    Main riff

    Am7   G          D       Dsus2
 e|-3----------3-------2-----0-------|
 B|---1--(3)-3---3-------3-----3---3-|
 G|-----2-0--------0-------2-----2---|
 D|------------------0---------------|
 A|----------------------------------|
 E|----------------------------------|
   Played three times before the first
   verse. Only one time before the second.

    Am7   G          D        Dsus2
 e|-3----------3-------------2----------|
 B|---1--(3)-3---3---------3---3*-------|
 G|-----2-0--------0-----2-------2*--2*-|
 D|------------------0-0-----------0*---|
 A|-------------------------------------|
 E|-------------------------------------|

   * - These notes are played before
       the second verse, not the first.

                     Am7 G 
 I can't remember my name
                D    Dsus2
 But I remember yours
                   Am7 
 Can't seem to get out
             G                       
 Though I've walked through 
           D    Dsus2
 a million doors
                        Am7    
 Guess I must have been borned
     G             D Dsus2
 Somewhere 'round 74
                Am7
 Can't tell for sure
     G                     D   Dsus2
 Not sure 'bout a thing anymore

       Am7
 Am I alive
         Em      
 It's so beautiful
         C
 Maybe I died
        D
 Walked through the last door
       Am7
 Am I alive
         Em
 It's so beautiful
         C    D
 Maybe I died

 e|-------2-|
 B|-----3---|
 G|---2-----|
 D|-0-------|
 A|---------|
 E|---------|
 
 Am7 G D Dsus2 Am7 G D Dsus2
[ Tab from: http://www.guitartabs.cc/tabs/e/eskobar/so_tab.html ]
 I can't remember my name
 But I remember yours
 Can't seem to get out
 Though I've walked through 
 a million doors
 Guess I must have been borned
 Somewhere 'round 74
 Can't tell for sure
                           D
 Not sure 'bout a thing anymore
                               Dsus4 D Dsus2 D       
 e|------------2---------------3-----2-0-----2-|
 B|--------3-----3---3---3-----3-----3---------|
 G|----2-2---2-----2---2---2-2-2---------------|
 D|-0*-----------------------------------------|
 A|--------------------------------------------|
 E|--------------------------------------------|
   
   * - This note is played a whole bunch of
       times. 
    
    Solo(There are two guitars playing at 
         the same time. This is a mix of 
         them both.) 

        Am7 G      D Dsus2    Am7 G       D 
 e|-----------------------------------------|
 B|-----------------------------------------|
 G|-2h4-5----4h5p4-2--X-0h2h4-5-5-4h5-0-4-2-|
 D|-------------------X-------5-5-----------|
 A|-----------------------------------------|
 E|-----------------------------------------|
    Dsus2   Am7 G   D Dsus2    Am7 G     D Dsus2 Am7
 e|------------------------------8-7-5-3-5-------5-|
 B|--------------------------1-3------------5------|
 G|-4-0-2-0-2-5-4-0-2--0h2h4-----------------------|
 D|------------------------------------------------|
 A|------------------------------------------------|
 E|------------------------------------------------|
       G      D  Dsus2     Am7 G        D Dsus2 Am7
 e|-3------------------------------------------------3-|
 B|---1-----3-5--3h5-3h5p3-1------------------------1--|
 G|-----2-4---------------------4-4h5p4-2----------2---|
 D|-----------------------------------------------2----|
 A|----------------------------------------------0-----|
 E|---------------------------------------------0------|
 
 It's so beautiful
 Maybe I died
 Walked through the last door
 Am I alive 
 It's so beautiful
 Maybe I died
 Walked through the last door

 Questions, requests, comments, corrections 
 and suggestions to halfdan@eskobar.nu
Comments