Eskimo Joe - Wake Up Chords & Tabs

 

Wake Up Chords & Tabs

Eskimo Joe Chords & Tabs

Version: 2 Type: Tab 0 ratings
1 star 2 stars 3 stars 4 stars 5 stars
comments

Wake Up Tab

   
Song Title:	Wake Up
Album:		Girl (2001)
Band:		Eskimo Joe
Tabbed By:	mathew krueger  (caution@hotmail.com)
Date Tabbed:	29/06/02


If you have any corrections please email me.

Listen to CD for strumming.

Verse
~~~~~
       D       G       C
E: |------------------------------|
B: |----7-7-7-7-3-3-3-3-5-5-5-5---|
G: |---7-7-7-7-4-4-4-4-5-5-5-5----| x 6
D: |------------------------------|
A: |------------------------------|
E: |------------------------------|

Pre-Chorus
~~~~~~~~~~
       Bm              D  G  C  D  G  C
E: |------2---2---2---------------------|
B: |--------3---3---3--7-----5--7-----5-|
G: |-----4---4---4---4-7--4--5--7--4--5-|
D: |---4---------------7--5--5--7--5--5-|
A: |-------------------5--5--3--5--5--3-|
E: |----------------------3--------3----|
[ Tab from: http://www.guitartabs.cc/tabs/e/eskimo_joe/wake_up_tab_ver_2.html ]
Chorus
~~~~~~
      G    Bm   E  C  G    Bm   E  C  G
E: |------------------------------------|
B: |-------3----9--5-------3----9--5----|
G: |--4----4----9--5--4----4----9--5--4-|
D: |--5pm--4pm--9--5--5pm--4pm--9--5--5-|
A: |--5----2----7--3--5----2----7--3--5-|
E: |--3---------------3---------------3-|

Solo
~~~~
E: |------------------------------------------|
B: |-3/-7\-3/-7\-3--1h3-3-3-3--3-3-5-5-5-5-5-3|
G: |------------------------------------------| x 2
D: |------------------------------------------|
A: |------------------------------------------|
E: |------------------------------------------|

Outro
~~~~~~
     D  G  C  D  G  C  D  G  C  D  G  C    Bm
E: |-----------------------------------------|
B: |-7-----5--7-----5--7-----5--7-----5----3-|
G: |-7--4--5--7--4--5--7--4--5--7--4--5----4-|
D: |-7--5--5--7--5--5--7--5--5--7--5--5----4-|
A: |-5--5--3--5--5--3--5--5--3--5--5--3----2-|
E: |----3--------3--------3--------3---------|

Verse
Pre-Chorus
Chorus
Verse
Pre-Chorus
Chorus
Solo
Outro
Comments