Eskimo Joe - Planet Earth Chords & Tabs

 

Planet Earth Chords & Tabs

Eskimo Joe Chords & Tabs

Version: 2 Type: Tab 0 ratings
1 star 2 stars 3 stars 4 stars 5 stars
comments

Planet Earth Tab

   
Eskimo Joe - Planet Earth
Tabbed by MT

Lead riff:

----------------------|-------------------------|-------------------|
----------------------|-------------------------|-------------------|
-7---6ó--4---2--------|----0-------0---2--------|--4---6---7---9----|
----------------------|--------4----------------|-------------------|
----------------------|-------------------------|-------------------|
----------------------|-------------------------|-------------------|


----------------------|-------------------------|-------------------|
----------------------|-------------------------|-------------------|
---7---6---4----------|---7---6---4---2---------|---4---2-----------|
----------------------|-------------------------|------------4---2--|
----------------------|-------------------------|-------------------|
----------------------|-------------------------|-------------------|

[ Tab from: http://www.guitartabs.cc/tabs/e/eskimo_joe/planet_earth_tab_ver_2.html ]
----------------------|-------------------------|-------------------|
----------------------|-------------------------|-------------------|
---0---2---4----------|---4---6---7-------------|-------------------|
----------------------|-------------------------|-------------------|
----------------------|-------------------------|-------------------|
----------------------|-------------------------|-------------------|

D			    G
Outside a market place on earth,
			  Bm
Theres a subject we all talk about,
		E		D
Itís called girls, and how they work


Last night while walking in the park,
A strange kind of thought occurred to me,
So I went to your house, and told you:


Chorus:
D				G
There is a place where people go,
Bm				E	D
And it is worth its weight in gold


Out in the stars up in the sky,
Thereís a thing that they all talk about,
Itís called the opposite, and how it works

Last night while walking past your house,
I came across a man who said to me
Itís in the stars, up in the sky

There is a place where people go
And it is worth its weight in gold
They call this place the planet earth,
Where you just know youíre not the first

Oh...... itís....... alone........
Oh itís so low itís so low itís so low itís so many    X5 

There is a place where people go 
And it is worth itís weight in gold
They call this place the planet earth 
Any you just know youíre not the,
Where you just know youíre not the,
Where you just know youíre not the,
Where you just know youíre not the first.
Comments