Eskimo Joe - From The Sea Chords & Tabs

 

From The Sea Chords & Tabs

Eskimo Joe Chords & Tabs

Version: 3 Type: Tab 0 ratings
1 star 2 stars 3 stars 4 stars 5 stars
comments

From The Sea Tab

Song: From The Sea
Band: Eskimo Joe
Tabbed by: Leigh|esp
Email: lemour@hotmail.com
Tuning: Standard E


INTRO/VERSE
e|------------------|
B|------------------|
G|------------------| X 5
D|--4-4-4-4-4-4-4-4-|   
A|--4-4-4-4-4-4-4-4-|
E|--2-2-2-2-2-2-2-2-|
    X X X X X X X X
    1 + 2 + 3 + 4 +

e|------------------|------------------|
B|------------------|------------------|
G|------------------|------------------|
D|--8-8-8-8-8-8-8-8-|-8-8-8-8-8-8-8-8--|
A|--8-8-8-8-8-8-8-8-|-8-8-8-8-8-8-8-8--|
E|--6-6-6-6-6-6-6-6-|-6-6-6-6-6-6-6-6--|
    X X X X X X X X   X X X X X
    1 + 2 + 3 + 4 +   1 + 2 + 3 + 4 +

PLAYED IN BACKGROUND IN INTRO/VERSE STARTS ON BAR 4
e|---------------------|
B|-----2---------------|
G|---3------5-3---3----|   X  2
D|-4------4-----4------|
A|---------------------|
E|---------------------|

e|---------------------|
B|-----6---------------|
G|---6------8-6---6----|   X  2
D|-8------8------8-----|
A|---------------------|
E|---------------------|
[ Tab from: http://www.guitartabs.cc/tabs/e/eskimo_joe/from_the_sea_tab_ver_3.html ]
BRIDGE 'ITS LIKE A RADAR....'
e|-----------------|-----------------|-----------------|-----------------|
B|-----------------|-----------------|-----------------|-----------------|
G|-----------------|-----------------|-----------------|-----------------|
D|-4-4-4-4-4-4-4-4-|-4-4-4-4-4-4-4-4-|-8-8-8-8-8-8-8-8-|-6-6-6-6-6-6-6-6-|
A|-4-4-4-4-4-4-4-4-|-4-4-4-4-4-4-4-4-|-8-8-8-8-8-8-8-8-|-6-6-6-6-6-6-6-6-|
E|-2-2-2-2-2-2-2-2-|-2-2-2-2-2-2-2-2-|-6-6-6-6-6-6-6-6-|-4-4-4-4-4-4-4-4-|
   X X X X X X X X   X X X X X X X X   X X X X X X X X   X X X X X X X X
   1 + 2 + 3 + 4 + .... etc
  
Riff played in background IN CHORUS 
It could be wrong, ive only got small speakers
so its hard to hear whats going on
e|----------------------------------|
B|-----6------6------6--------------|
G|---6------6------6----5--6--5--3--|
D|-8------8------8------------------|
A|----------------------------------|
E|----------------------------------|


PART PLAYED WHEN SINGING 'HELLO HELLO OH HELLO '
EXCUSE THE LAZINESS
e|-6--9---2--6--4--4---|
B|-6--9---2--6--4--4---|
G|-6--10--3--6--4--3---|
D|-8--11--4--8--6--4---|
A|-8--11--4--8--6--4---|
E|-6--9---2--6--4--2---|

Lead Guitar riff played at about 2:30
e|----------------------------|
B|-------6--4-----------------|
G|-3--6--------6--5--6--5--3--|
D|----------------------------|
A|----------------------------|
E|----------------------------|

X = palm mute
Comments