Eric Weissberg - Dueling Banjos Chords & Tabs

 

Dueling Banjos Chords & Tabs

Eric Weissberg Chords & Tabs

Version: 2 Type: Tab 0 ratings
1 star 2 stars 3 stars 4 stars 5 stars
comments

Dueling Banjos Tab

   
The Dueling Banjos

This is my first tab that I didnít get out of a book. Iím only 16 so go easy
on me. If you have any questions e-mail me at ok_redneck74535@yahoo.com

   Key

   h = hammeron
   ^ = up stoke in strumming (the rest are down)


e |------------------------------------------------------|
b |--0--0--0--1--3--1--0---------------------------------|
g |------------------------------------------------------|
D |------------------------------------------------------|
A |------------------------------------------------------|
E |------------------------------------------------------|

e |-----------------------------------------------------|
b |--0-1-3-0-1-----0------------0-1-3-0-1-----0---------|
g |-------------2-----0--2-----------------2-----0--2---|
D |-----------------------------------------------------|
A |-----------------------------------------------------|
E |-----------------------------------------------------|
[ Tab from: http://www.guitartabs.cc/tabs/e/eric_weissberg/dueling_banjos_tab_ver_2.html ]
e |-----------------------------------------------------|
b |-----------------0------0-------------------0--------|
g |-----0---0---2------0------2-----0---0---2-----0-----|
D |--0---------------------------0----------------------|
A |-----------------------------------------------------|
E |-----------------------------------------------------|
                                                                                  
                  ^     ^               ^     ^          ^     ^ 
e|------------0--0--0--0--0------------3--3--3--3-------3--3--3--3--------3----|
b|------------1--1--1--1--1------------0--0--0--0-------0--0--0--0--------0----|
g|------------0--0--0--0--0------------0--0--0--0-------0--0--0--0--------0----|
D|--3-2-0-----2--2--2--2--2------------0--0--0--0-------0--0--0--0--------0----|
A|---------3--3--3--3--3--3---3-2-0----2--2--2--2--0h2--2--2--2--2--0h2---2----|
E|----------------------------------3--3--3--3--3-------3--3--3--3--------3----|
          ^         ^                       ^      
e|--2--2--2--2---2--2-----------------3--3--3--3---0---3-----------------------|
b|--3--3--3--3---3--3-----------------0--0--0--0---1---0-----------------------|
g|--2--2--2--2---2--2-----------------0--0--0--0---0---0-----------------------|
D|--0--0--0--0---0--0-----------------0--0--0--0---2---0-----------------------|
A|----------------------3--3-3-2-0----2--2--2--2---3---2-----------------------|
E|------------------------------------3--3--3--3---0---3-----------------------|
     
e |---------------------------------|	      |--------------------------------|
b |---------------------------------|	      |--------------------------------|
g |---------------------------------|	      |----------------------0---------|
D |--------------------0------------|	      |-----------0--2--3-------3--2---|
A |----------0--2--3-----3--2-------|         |--3--3--3-----------------------|
E |-3--3--3-------------------------|	      |--------------------------------|

This is mainly the fast strumming part, I havent figured out the rest of it yet.
Thatís it have fun with it!
Comments