Eric Lapointe - Ce Soir On Danse ?  Naziland Chords & Tabs

 

Ce Soir On Danse ?  Naziland Chords & Tabs

Eric Lapointe Chords & Tabs

Version: 1 Type: Bass Tab

Ce Soir On Danse ?  Naziland Bass Tab

   
Title: Ce soir on danse a Naziland
Artist: Eric LApointe
Album: Adrenaline
Tabber: Steph
Email: cyberbassist@hotmail.com


Intro
    C      Bb       G
G|-----------------------------------------------------------------------|
D|-----------------------------------------------------------------------|
A|--3------1-------------------------------------------------------------|
E|------------------3-3-33-----------------------------------------------|


vERSE1:
   C               G#                Bb               C        G Bb
G|-----------------------------------------------------------------------|
D|-----------------------------------------------------------------------|
A|-3-3-3-33-33-333-------------------1-1-1-11-11-111--3-3-3-33---1-------|
E|-----------------4-4-4-44-44-444-----------------------------3---------|

cHORUS
   C                             G#  
G|-----------------------------------------------------------------------|
D|-----------------------------------------------------------------------|
A|-3-3-3-33-33-3--3-3-3-33-33-3------------------------------------------|
E|--------------3--------------3/444-44-44-4-3/444-44-44-3/444-44-44-4---|

   C     Bb    G#    G 
G|-----------------------------------------------------------------------|
D|-----------------------------------------------------------------------|
A|-33333-11111-----------------------------------------------------------|
E|-------------44444-3-3-33----------------------------------------------|


VERSE2
[ Tab from: http://www.guitartabs.cc/tabs/e/eric_lapointe/ce_soir_on_danse_naziland_btab.html ]
   C               G#                Bb               C        G Bb
G|-----------------------------------------------------------------------|
D|-----------------------------------------------------------------------|
A|-3-3-3-33-33-333-------------------1-1-1-11-11-111--3-3-3-33---1-------|
E|-----------------4-4-4-44-44-444-----------------------------3---------|


  C               G#                Bb               C Bb
G|-----------------------------------------------------------------------|
D|-----------------------------------------------------------------------|
A|-3-3-3-33-33-333-------------------1-1-1-11-11-111--3-1-3-1-3-1-3------|
E|-----------------4-4-4-44-44-444---------------------------------------|

  1:04
G|-R---------------------------------------------------------------------|
D|-E----------------------3-3--------------------------------------------|
A|-S--------3-3--4-4--6-6------1-1-1-11-11-111--3-3-3-33----1------------|
E|-T----4-4-----------------------------------------------3--------------|

   C               G#                Bb               C        
G|-----------------------------------------------------------------------|
D|-----------------------------------------------------------------------|
A|-3-3-3-33-33-333-------------------1-1-1-11-11-111--3-3-3-33-33-3-3----|
E|-----------------4-4-4-44-44-444---------------------------------------|

(CHORUS)

(SOLO)

(INTERLUDE)
                 FILL 2:26
G|-------------|----------------------------------------------------------|
D|-------------|----------------------------------------------------------|
A|-3---1--3--1-|--3-1-3-1-3-1-3-------------------------------------------|
E|---4------3--|----------------------------------------------------------|


OUTRO
   C           G#                          C
G|-----5-----5-----------------------------------------------------------||
D|-----------------6-----6-----6-----------------------------------------||
A|-3333--3333------------------------------3~----------------------------||
E|-------------4444--4444--4444------------------------------------------||


eNJOY
cyberbassist

P.s.: Il se peux que la rythmique ne soit pas exacte mais, en gros, c'est 
pas mal ca ;)