Eric Johnson - Song For Life Chords & Tabs

 

Song For Life Chords & Tabs

Eric Johnson Chords & Tabs

Version: 1 Type: Tab 0 ratings
1 star 2 stars 3 stars 4 stars 5 stars
comments

Song For Life Tab

This is the beginning to "Song For Life" from Eric Johnson's Seven
Worlds.  I have only learned the first part of this but plan to post
the rest when I get a chance.  Any comments or suggestions? Email me
at Ernie3013@aol.com

|----------1--------1---(1)------------------------------------------|
|-----1--------1-----------------------------------------------------|
|-------3--------3-----3 h 5-----play 3 times------------------------|
|---0--------0-------------------------------------------------------|
|--------------------------------------------------------------------|
|-3------------------------------------------------------------------|

                            *(this part is hard to nail)

|-----------1----------8--6---3 p-1--------1--------8---1--------1---|
|-----1-----1------8/10----------------1-------8/10----------1-------|
|-------3----------------------------3---3-----------------3---3-----|
|---0----------------------------------------------------------------|
|------------------6/8--------1----------------6/8------1------------|
|-3---------1-------------6------------------------------------------|

[ Tab from: http://www.guitartabs.cc/tabs/e/eric_johnson/song_for_life_tab.html ]
|---------------------1--3---6--5---6---------8---6----3-p-1--------1-|
|-3--1-----1--3---4-----------------6----8/10-------------------1-----|
|-------3---------------------------7-------------------------3---3---|
|---------------------0-(0)--3--3---8---------------------------------|
|-0-(0)----0-(0)--3-----------------8----6/8-----------1--------------|
|-------3---------------------------6-------------6-------------------|

|-------8--1--------1-----------------------1--3---6--5---6--(6)----6-|
|--8/10---------1--------3--1-----1--3---4------------------------6---|
|-------------3---3------------3--------------------------------------|
|-------------------------------------------0-(0)--3--3---------8-----|
|--6/8-----1-------------0-(0)----0-(0)--3----------------------------|
|------------------------------3--------------------------6--(6)------|

Well that is all I know...But I will learn this song. I have taken
from this site as well as others and I think it is about time that I
contribute a song that no one has posted. This is the first time I
ever Posted a Tab...If there is any mistakes
please let me know so I can fix it.
Comments